Forever The Sickest Kids - Woah Oh Me Vs Everyone Text Guitar Tab

Learn the song with the online tablature player
I tabbed the version 2 of this on guitar and since I did so well, I thought I'd do the bass one!

Intro

G|-----------------------------------|
D|-----------------------------------|
A|-----------------------------------|
D|-0-5-0-5-7-0-4-5-4-0-00000000------|

G|-----------------------------|
D|-----------------------------|
A|-----------------------------|
D|-77-5-0-4-5-4-0-00000000-----|

G|------------------------------------------------|
D|------------------------------------------------|
A|------------------------------------------------|
D|-55-7-0-4-5-4-9-9999-777-0-55-7-0-4-5-4-0~------|x1

Verse 0
15 (Hold until 0:28)

G|----------|
D|----------|
A|----------|
D|-12~~-----|

G|--------------------------------------|
D|--------------------------------------|
A|--------------------------------------|
D|-55555555-77777777-0000000000000000---|

G|---------------------------------|
D|---------------------------------|
A|---------------------------------|
D|-55555555-77777777-00000000-0----|x1

Chorus

G|---------------------------------------------|
D|---------------------------------------------|
A|--------7-55555555-7-------------------------|
D|-555555--------------7777777777777-0-2-4-----|

G|---------------------------------------|
D|---------------------------------------|
A|--------7-55555555-7-------------------|
D|-555555--------------777777-777-7777---|x1

Clean Guitar part after Chorus

G|----------|
D|----------|
A|----------|
D|-5~--0~---|

Verse 2
Might be wrong)

G|--------------------------------------|
D|--------------------------------------|
A|--------------------------------------|
D|-5--5-7-5-7--7-5-4-0-000-0-0-0-0------|x2

G|--------------------------------------|
D|--------------------------------------|
A|--------------------------------------|
D|-55555555-77777777-0000000000000000---|

G|---------------------|
D|---------------------|
A|---------------------|
D|-5-5-7-7-7-7-0~------|x1

Chorus

G|---------------------------------------------|
D|---------------------------------------------|
A|--------7-55555555-7-------------------------|
D|-555555--------------7777777777777-0-2-4-----|

G|---------------------------------------|
D|---------------------------------------|
A|--------7-55555555-7-------------------|
D|-555555--------------777777-777-7777---|

G|---------------------------------------------|
D|---------------------------------------------|
A|---------------------------------------------|
D|-55555555-77777777-99999999-12121212-999-----|

G|---------------------------------------|
D|---------------------------------------|
A|--------7-55555555-7-------------------|
D|-555555--------------77777777-7-7-777--|x1

Breakdown/Bridge

G|----------|
D|----------|
A|----------|
D|-5~--0~---|x3

G|------------------------------------------|
D|------------------------------------------|
A|------------------------------------------|
D|-5555555555555555-77777777-9999-121212----|

G|---------------------------------------------|
D|---------------------------------------------|
A|---------------------------------------------|
D|-55555555-77777777-99999999-12121212121212---|x1

Mixed up Intro
(Just Guitar 1 and bass from 2:29-2:34)

G|------------------------|
D|------------------------|
A|------------------------|
D|-55-7-0-4-5-4-000-000---|

G|-----------------------------|
D|-----------------------------|
A|-----------------------------|
D|-55-7-0-4-5-4-000-00000000---|

G|--------------------------------------------------|
D|--------------------------------------------------|
A|--------------------------------------------------|
D|-55-7-0-4-5-4-9-9999-777-0-55-7-0-4-5-4-000-12/---|x1

Chorus

G|---------------------------------------------|
D|---------------------------------------------|
A|--------7-55555555-7-------------------------|
D|-555555--------------7777777777777-0-2-4-----|

G|---------------------------------------|
D|---------------------------------------|
A|--------7-55555555-7-------------------|
D|-555555--------------777777-777-7777---|

G|---------------------------------------------|
D|---------------------------------------------|
A|---------------------------------------------|
D|-55555555-77777777-99999999-12121212-999-----|

G|------------------------------------------------|
D|------------------------------------------------|
A|------------------------------------------------|
D|-55555555-77777777-9-9-99-1212121212-99-0-5~----|x1