Format - Oceans Text Guitar Tab

Learn song with the online tabulature player
Oceans

Introx2
e----------------------------------------------------------------------|
B----------------------------------------------------------------------|
G-77-666-444-66--------------------------------------------------------|
D-77-777-555-77--------------------------------------------------------|
A-55-777-555-77--------------------------------------------------------|
E----555-333-55--------------------------------------------------------|

Versesxlisten to song to see how many times
e-222-----333----------------------------------------------------------|
B-333-222-333-22-------------------------------------------------------|
G-222-222-----22-------------------------------------------------------|
D-----222-----22-------------------------------------------------------|
A---------222----------------------------------------------------------|
E---------333----------------------------------------------------------|

Pre-Chorus is Intro with this at the end
e----------------------------------------------------------------------|
B----------------------------------------------------------------------|
G-444444--666666-------------------------------------------------------|
D-555555--777777-------------------------------------------------------|
A-555555--777777-------------------------------------------------------|
E-333333--555555-------------------------------------------------------|

Chorus
e-222222--------333333--------333333-----------------------------------|
B-333333-222222-333333-222222-333333-----------------------------------|
G-222222-222222--------222222------------------------------------------|
D--------222222--------222222------------------------------------------|
A---------------222222--------222222-----------------------------------|
E---------------333333--------333333-----------------------------------|

Bridgex listen to song
e----------------------------------------------------------------------|
B----------------------------------------------------------------------|
G-77777777777777777777777777777777777777777777777777777777-------------|
D-77777777777777777777777777777777777777777777777777777777-------------|
A-55555555555555555555555555555555555555555555555555555555-------------|
E----------------------------------------------------------------------|

Then Intro and Pre-Chorus
Then Chorus

I got more, request if you want more.