Format - The Compromise Text Guitar Tab

Learn the song with the online tablature player
Intro.
 C#m   A7   E     C#m   A7   E       C#m   A7   E
|------------------------------------------------------------|
|----------------------------9-7-9-7-------------------------|
|-9-8-6-8-9---7---9-8-6-8-9----------9--8-6-8-9---7------9---|
|-----------9---9-------------------------------9---9-999-9v-|
|------------------------------------------------------------|
|------------------------------------------------------------|

Verse Chords
You, you think its cool . . ): E F# A7 E

Bridge
away from this scene . . . ): F# F#m

Chorus Chords
Meet me in the middle . . .): C#m A7 E

Solo.
|-------------------------------------------------------------------|
|-12---10------10-----------------8---------------------------------|
|-12bu----12-9----12-9-9-9----7-----9-7----9-7---7------------------|
|---------------------------9---9-------5------9---9-7s5-7-5-2-2----|
|-------------------------------------------------------------------|
|-------------------------------------------------------------------|

|-15b-15-13h15p13---------------------------------------------------|
|----------------13-15-15---15----17--15---15-----------------------|
|-------------------------14---16---16—12v---14-12----12~(12h14p12)-|
|-------------------------------------------------------------------|
|-------------------------------------------------------------------|
|-------------------------------------------------------------------|