Format - Tie The Rope Text Guitar Tab

Learn song with the online tabulature player
-------------------------------------------|
---111-11-1--111--11-1---------------------|
---000-00-0--000--00-0---------------------|
---333-22-0--333--22-0---------------------|
-------------------------------------------|
-------------------------------------------|

Verse
--------3--1-------------------------|
--1--1--0--1-------------------------|
--2--0--0--2-repeat as necessary-----|
--2--2--0--3-------------------------|
-----3--2----------------------------|
--------3----------------------------|

Chorus
------------------------1----------|
--111-111-11111-1----1--1----------|
--000-000-00000-0----2--2----------|
--222-022-02020-2----2--3----------|
--333-333-33333-3------------------|
-----------------------------------|

Bridge
-------------------------------------|
----1---1---1---1--------------------|
---0-0-0-0-0-0-0-0-------------------|Repeat as neccesary
--3---2---3---0----------------------|and you can strum the last part
-------------------------------------|
-------------------------------------|