Format - Wait Wait Wait Text Guitar Tab

Learn song with the online tabulature player
INtro
--3--2-2-3-2-2-2-3----------------------|
--3--3-3-2-3-3-3-3----------------------|
--0--2-2-2-2-2-2-0----------------------|
--0--------------0repeat----------------|
--2--------------2----------------------|
--3--------------3----------------------|
Verse (in the verse the second Chord C its either that or its this ***230 You decide what sounds better)
--2-0-3-3-3----------------------------|
--3-3-3-3-3----------------------------|
--2-0-0-0-0----------------------------|
----2-0-0-2----------------------------|repeat and listen to song
----3-2-2-3----------------------------|
------3-3------------------------------|

Chorus
--3-----2--3----2-3-3-------------------|
--3-----3--3----3-3-3-------------------|
--0-----2--0----2-0-0-------------------|
--0--------0------2-0-------------------|
--2--------2------3-2-------------------|
--3--------3--------3-------------------|

Bridge is the same as verse just strummed lightly.

pretty easy. I kinda now the solo I will put it up later