Forward Russia - Eighteen Text Guitar Tab

Learn song with the online tabulature player
this is a great song by a superb band!

this is just the riff in the pre-chorus bit... trying to tab the rest soon.

normal tuning:


-------|------5---6---8---6---5------------------------5---6---8---6---5------------|
-------|--------------------------8---6---5---6---8---------------------------------|
-------|----------------------------------------------------------------------------|
-------|----------------------------------------------------------------------------|
-------|----------------------------------------------------------------------------|
-------|----------------------------------------------------------------------------|

                         ''i'il protect your sense of right"

-------|--------------------------5---6---8---6---5------------------------5---6----|
-------|------8---6---5---6---8-----------------------8---6---5---6---8-------------|
-------|----------------------------------------------------------------------------|
-------|----------------------------------------------------------------------------|
-------|----------------------------------------------------------------------------|
-------|----------------------------------------------------------------------------|

                                  "I'll protect your senses till you find me"

ENJOY

tabbed by:

Richard Turnbull