Foster The People - Helena Beat Text Guitar Tab

Learn song with the online tabulature player
Artist: Foster The People
Album: Torches
Song: Helena Beat



Here it is the main solo, enjoy ! 


e|---------------------------------------------------------------------------|
B|---------------------------------------------------------------------------|
G|---------------------------------------------------------------------------|
D|--------------------------------------------------------5h6p5--------------|
A|-----------------/6-6-6-6-6-6-6---------------------6-6--------------------|
E|1-1-1-1-1-3-3-3-3-----------------4-4-4-4-6-6-6-6-8-8----------------------|


e|---------------------------------------------------------------------------|
B|---------------------------------------------------------------------------|
G|---------------------------------------------------------------------------|
D|---------------------------------------------------------------------------|
A|-----------------/6-6-6-6-6-6-6---------------------6-6-8p6-8--------------|
E|1-1-1-1-1-3-3-3-3---------------4-4-4-4-6-6-6-6-8-8------------------------|