Foster The People - Pumped Up Kicks Text Guitar Tab

Learn song with the online tabulature player
-------------------------------------------------------------------------------
			     PUMPED UP KICKS - Foster The People
-------------------------------------------------------------------------------

Tabbed By : lilmikers1024 
e-mail: sonicboom@whoever.com

Tuning: Standard

I just watched live performances of Foster The People on 
Youtube and copied what the bassist does. 


G |-----------------------------------------------|
D |-----------------------------------------------|
A |-----------------------6--6--6-----------------|
E |--1--1--1-3--4--4--6-8---------8--6--6--6-4-6--|

G |-------------------------------------------------|
D |-------------------------------------------------|
A |-----------------------6--6--6h8p6---------------|
E |--1--1--1-3--4--4--6-8------------8p6--6--6h8p6-4|


And that's it, the bassist repeats this throughout the whole song.


| /  slide up
| \  slide down
| h  hammer-on
| p  pull-off
| ~  vibrato
| +  harmonic
| x  Mute note
===============================================================================