Foster The People - Waste Text Guitar Tab

Learn the song with the online tablature player
G|-------10-------10-10-8----------------13-13--12-----------------------------|
D|----10------10---------10-----------13-----------13--------------------------|
A|--8-----88-------------------11-11----------------------11-13-11-10----------|
E|------------------------------------------------------11--------------11-----|

chorus
not so sure bout this part)
G|---------------------------------------------------------------------------|
D|---------------------------------------------------------------------------|
A|-------4---3---------------------------------------------------------------|
E|----4----1-----------------------------------------------------------------|