Fotos - Giganten Text Guitar Tab

Learn song with the online tabulature player
Intro/Verse: a few times/listen to the song

G|----------------------------------------------------------------------------|
D|----------------------------------------------------------------------------|
A|----------------------------------------------------------------------------|
E|0-0-0-0-0-0-0-0-4-4-4-4-4-4-4-4---------------------------------------------|
hast sondern was dich berührt...
Pre-Chorus: 2X

G|9-9-9-9-9-9-9-9-11-11-11-11-11-11-11-11-8/9-9-9-9-9-9-9-9-13-13-13-13-13-13--|
D|-----------------------------------------------------------------------------|
A|-----------------------------------------------------------------------------|
E|-----------------------------------------------------------------------------|

G|13-13-11-11-11-11-11-11-11-11-9-9-9-9-9-9-9-9----------------|
D|-------------------------------------------------------------|
A|-------------------------------------------------7/----------|
E|-------------------------------------------------------------|
...damit es mit mir ist...
Refrain:
G|----------------------------------------------------------------------|
D|----------------------------------------------------------------------|
A|--------------------------------4-4-4-4-4-4-4-4-----------------------|
E|0-0-0-0-0-0-0-0-4-4-4-4-4-4-4-4-----------------0-0-0-0-0-0-0-0-------|

G|-------------------------------------------------------------|
D|-------------------------------------------------------------|
A|----------------4-4-4-4-4-4-4-4------------------------------|
E|4-4-4-4-4-4-4-4-----------------0-0-0-0-0-0-0-0--------------|

mir ins Gesicht...

G|---------------------------------------------------------------------|
D|---------------------------------------------------------------------| x3
A|--------------------------------4-4-4-4-4-4-4-4----------------------|
E|0-0-0-0-0-0-0-0-4-4-4-4-4-4-4-4-----------------0-0-0-0-0-0-0-0------|

Verse/a few times

Pre Chorus/ 1x

Refrain

Outro(so müssen sich doch die Giganten fühlen)


D|-----------------------------------------11-11-11-11-11-11-11-11----|
A|-7-7-7-7-7-7-7-7-11-11-11-11-11-11-11-11----------------------------|
E|--------------------------------------------------------------------|

G|-------------------------------------------------------------|
D|-------------------------------------------------------------|
A|-7-7-7-7-7-7-7-7---------------------------------------------|
E|-------------------------------------------------------------|


i know it is not correct 100% but you can get the rest,i think there a some variations 
the Outro,but please note im not a bassplayer^^;)