Fountains Of Wayne - All Fountains Of Wayne Tabs Chords

 
         
         
         
         
         
2
3
1
4 fr
         
         
         
         
         
X
4
3
1
2
1
7 fr
         
         
         
         
         
X
1
4
4
4
X
2 fr
         
         
         
         
         
X
X
1
2
4
3
4 fr
         
         
         
         
         
4
3
1
2
1
7 fr
         
         
         
         
         
X
1
3
3
3
1

9 fr
         
         
         
         
         
4
3
1
1
1
X
9 fr
         
         
         
         
         
3
2
1
1
1
4
12 fr
         
         
         
         
         
1
3
4
2
1
1
4 fr
         
         
         
         
         
X
7 fr
         
         
         
         
         
1
3
4
2
1
1
         
         
         
         
         
X
2
1
X
3
         
         
         
         
         
X
1
4
4
4
X
         
         
         
         
         
X
1
3
3
3
1
4 fr
         
         
         
         
         
4
3
1
1
1
X
4 fr
         
         
         
         
         
3
2
1
1
1
4

9 fr
         
         
         
         
         
X
X
1
3
4
3
11 fr
         
         
         
         
         
X
4
3
1
2
1

Cm

variations
4 fr
         
         
         
         
         
X
1
3
4
2
1
9 fr
         
         
         
         
         
1
3
4
1
1
1
         
         
         
         
         
X
4
2
1
X
X
         
         
         
         
         
X
4
3
1
2
X
4 fr
         
         
         
         
         
X
1
X
X
2
1
11 fr
         
         
         
         
         
X
X
1
3
4
2

4 fr
         
         
         
         
         
X
X
         
         
         
         
         
X
1
2
3
5 fr
         
         
         
         
         
1
3
4
2
1
1
2 fr
         
         
         
         
         
X
1
1
1
4
         
         
         
         
         
X
X
1
2
2 fr
         
         
         
         
         
3
2
1
1
1
4
7 fr
         
         
         
         
         
X
X
1
3
4
3

9 fr
         
         
         
         
         
X
4
3
1
2
1
12 fr
         
         
         
         
         
X
1
3
3
3
1
         
         
         
         
         
X
X
1
3
2
2 fr
         
         
         
         
         
X
4
3
1
2
1
5 fr
         
         
         
         
         
X
1
2
3
4
1
5 fr
         
         
         
         
         
X
1
4
4
4
X
7 fr
         
         
         
         
         
4
3
1
1
1
X
7 fr
         
         
         
         
         
3
2
1
1
1
4

10 fr
         
         
         
         
         
1
3
4
2
1
1
12 fr
         
         
         
         
         
X
X
1
3
4
3
5 fr
         
         
         
         
         
X
X
         
         
         
         
         
X
2
3
1
5 fr
         
         
         
         
         
1
3
4
1
1
1
5 fr
         
         
         
         
         
X
X
1
1
1
8 fr
         
         
         
         
         
X
3
2
4
1
2 fr
         
         
         
         
         
X
1
4
4
4
7 fr
         
         
         
         
         
X
1
3
4
2

9 fr
         
         
         
         
         
X
4
3
1
2
X
12 fr
         
         
         
         
         
X
1
3
4
2
1
5 fr
         
         
         
         
         
X
         
         
         
         
         
3
2
4
3 fr
         
         
         
         
         
1
3
4
2
1
1
         
         
         
         
         
2
1
3
4
3 fr
         
         
         
         
         
X
X
3
2
1
1
5 fr
         
         
         
         
         
X
X
1
3
4
3
7 fr
         
         
         
         
         
X
4
3
1
2
1

10 fr
         
         
         
         
         
X
1
2
3
4
X
10 fr
         
         
         
         
         
X
1
3
3
3
1
12 fr
         
         
         
         
         
3
2
1
1
1
4

F

variations
         
         
         
         
         
1
3
4
2
1
1
         
         
         
         
         
X
X
3
2
1
1
6 fr
         
         
         
         
         
X
4
3
1
2
1
4 fr
         
         
         
         
         
X
X
1
2
4
3
9 fr
         
         
         
         
         
X
1
3
3
3
1
11 fr
         
         
         
         
         
4
3
1
1
1
X

11 fr
         
         
         
         
         
3
2
1
1
1
4

B

variations
         
         
         
         
         
X
1
2
3
4
1
6 fr
         
         
         
         
         
1
3
4
2
1
1
         
         
         
         
         
X
1
4
4
4
X
         
         
         
         
         
X
1
X
3
4
1
3 fr
         
         
         
         
         
3
2
1
1
1
4
8 fr
         
         
         
         
         
X
X
1
3
4
3

10 fr
         
         
         
         
         
X
4
3
1
2
1
         
         
         
         
         
1
3
4
2
1
1
5 fr
         
         
         
         
         
X
4
3
1
2
1
3 fr
         
         
         
         
         
X
X
1
2
4
3
         
         
         
         
         
X
X
3
2
1
1
8 fr
         
         
         
         
         
X
1
3
3
3
1
10 fr
         
         
         
         
         
4
3
1
1
1
X

10 fr
         
         
         
         
         
3
2
1
1
1
4

C

variations
4 fr
         
         
         
         
         
X
1
2
3
4
1
         
         
         
         
         
X
4
3
1
2
1
4 fr
         
         
         
         
         
X
1
4
4
4
X
6 fr
         
         
         
         
         
4
3
1
1
1
X
6 fr
         
         
         
         
         
3
2
1
1
1
4
9 fr
         
         
         
         
         
1
3
4
2
1
1

11 fr
         
         
         
         
         
X
X
1
3
4
3

Bm

variations
         
         
         
         
         
X
1
3
4
2
1
6 fr
         
         
         
         
         
1
3
4
1
1
1
         
         
         
         
         
X
1
3
4
2
X
6 fr
         
         
         
         
         
X
X
3
1
1
1
8 fr
         
         
         
         
         
X
X
1
3
4
2
10 fr
         
         
         
         
         
X
4
3
1
2
X
         
         
         
         
         
1
3
4
1
1
1
         
         
         
         
         
X
X
3
1
1
1
3 fr
         
         
         
         
         
X
X
1
3
4
2
8 fr
         
         
         
         
         
X
1
3
4
2
1
5 fr
         
         
         
         
         
X
4
3
1
2
X

A

variations
4 fr
         
         
         
         
         
1
3
4
2
1
1
4 fr
         
         
         
         
         
X
X
3
2
1
1
6 fr
         
         
         
         
         
X
X
1
2
4
3
         
         
         
         
         
3
2
1
1
1
4
8 fr
         
         
         
         
         
X
4
3
1
2
1
11 fr
         
         
         
         
         
X
1
2
3
4
X

11 fr
         
         
         
         
         
X
1
3
3
3
1
         
         
         
         
         
X
1
2
4
3
         
         
         
         
         
X
         
         
         
         
         
X
         
         
         
         
         
2
3
3 fr
         
         
         
         
         
X
X
2
4
1
7 fr
         
         
         
         
         
X
1
3
4
2
1
2 fr
         
         
         
         
         
X
X
1
3
4
2
3 fr
         
         
         
         
         
X
3
2
4
1
4 fr
         
         
         
         
         
X
4
3
1
2
X

12 fr
         
         
         
         
         
1
3
4
1
1
1
         
         
         
         
         
X
1
1
1
3
         
         
         
         
         
X
1
3
5 fr
         
         
         
         
         
1
3
1
2
1
1
7 fr
         
         
         
         
         
X
1
3
2
4
2 fr
         
         
         
         
         
4
3
1
1
1
2
5 fr
         
         
         
         
         
1
3
1
2
4
1

7 fr
         
         
         
         
         
X
X
1
3
2
4
10 fr
         
         
         
         
         
X
3
2
4
1
12 fr
         
         
         
         
         
X
1
3
3
3
4
3 fr
         
         
         
         
         
1
3
4
1
1
1
5 fr
         
         
         
         
         
X
X
1
3
4
2
3 fr
         
         
         
         
         
X
X
3
1
1
1
         
         
         
         
         
1
X
2
3
4
         
         
         
         
         
3
1
X
X
X
         
         
         
         
         
2
1
3
4

7 fr
         
         
         
         
         
X
4
3
1
2
X
10 fr
         
         
         
         
         
X
1
3
4
2
1
         
         
         
         
         
X
3
2
1
3 fr
         
         
         
         
         
X
1
2
3
4
1
8 fr
         
         
         
         
         
1
3
4
2
1
1
3 fr
         
         
         
         
         
X
1
X
3
4
1
5 fr
         
         
         
         
         
3
2
1
1
1
4
10 fr
         
         
         
         
         
X
X
1
3
4
3

12 fr
         
         
         
         
         
X
4
3
1
2
1
3 fr
         
         
         
         
         
X

Fsus4

variations
         
         
         
         
         
1
3
3
3
1
1
3 fr
         
         
         
         
         
X
X
1
3
4
4
5 fr
         
         
         
         
         
X
3
4
1
2
X
8 fr
         
         
         
         
         
X
1
3
3
4
1
8 fr
         
         
         
         
         
X
1
1
3
4
1
         
         
         
         
         
X
X
2
3
1
5 fr
         
         
         
         
         
X
1
3
4
2
1
10 fr
         
         
         
         
         
X
X
1
1
1
5 fr
         
         
         
         
         
X
X
3
2
1
2 fr
         
         
         
         
         
X
4
3
1
2
X
10 fr
         
         
         
         
         
1
3
4
1
1
1

12 fr
         
         
         
         
         
X
X
1
3
4
2

E

variations
3 fr
         
         
         
         
         
X
4
3
1
2
1
6 fr
         
         
         
         
         
X
1
2
3
4
1
         
         
         
         
         
X
X
1
2
4
3
3 fr
         
         
         
         
         
X
4
3
1
2
X
8 fr
         
         
         
         
         
4
3
1
1
1
X
8 fr
         
         
         
         
         
3
2
1
1
1
4

11 fr
         
         
         
         
         
1
3
4
2
1
1
3 fr
         
         
         
         
         
X
1
3
4
2
1
8 fr
         
         
         
         
         
1
3
4
1
1
1
         
         
         
         
         
X
3
1
X
X
         
         
         
         
         
X
4
1
2
X
8 fr
         
         
         
         
         
X
X
3
1
1
1
10 fr
         
         
         
         
         
X
X
1
3
4
2

12 fr
         
         
         
         
         
X
4
3
1
2
X
         
         
         
         
         
X
1
3
4
2
1
7 fr
         
         
         
         
         
1
3
4
1
1
1
         
         
         
         
         
X
1
3
4
2
X
7 fr
         
         
         
         
         
X
X
3
1
1
1
9 fr
         
         
         
         
         
X
X
1
3
4
2
11 fr
         
         
         
         
         
X
4
3
1
2
X
         
         
         
         
         
2
7 fr
         
         
         
         
         
X
1
3
1
2
1
         
         
         
         
         
X
X
1
3
2
2
         
         
         
         
         
1
2
4
4
         
         
         
         
         
2
3
4
         
         
         
         
         
2
4

3 fr
         
         
         
         
         
X
3
2
1
5 fr
         
         
         
         
         
X
2
1
3
1
4
7 fr
         
         
         
         
         
X
1
3
1
2
X
7 fr
         
         
         
         
         
X
1
3
1
2
4
12 fr
         
         
         
         
         
1
3
1
1
4
1
         
         
         
         
         
X
2
4
7 fr
         
         
         
         
         
1
4
3
1
2
1
         
         
         
         
         
X
1
X
X
3
4
         
         
         
         
         
X
1
3
4
2 fr
         
         
         
         
         
X
1
4
3
2
X

Cadd9

variations
         
         
         
         
         
X
2
1
3
X
         
         
         
         
         
X
3
1
         
         
         
         
         
X
2
3
8 fr
         
         
         
         
         
X
X
3
2
1
4
         
         
         
         
         
X
         
         
         
         
         
X
         
         
         
         
         
X
X
1
2
X
5 fr
         
         
         
         
         
X
1
3
4
X
X
10 fr
         
         
         
         
         
1
3
4
X
X
X
         
         
         
         
         
3
2
1
3 fr
         
         
         
         
         
1
3
1
2
1
1
5 fr
         
         
         
         
         
X
X
1
3
2
4
         
         
         
         
         
1
X
2
4
3
X
3 fr
         
         
         
         
         
1
3
1
2
4
1
10 fr
         
         
         
         
         
X
1
3
3
3
4

10 fr
         
         
         
         
         
X
1
3
1
4
1
12 fr
         
         
         
         
         
4
3
1
1
1
2

Fm

variations
         
         
         
         
         
1
3
4
1
1
1
4 fr
         
         
         
         
         
X
X
1
3
4
2
         
         
         
         
         
X
X
3
1
1
1
9 fr
         
         
         
         
         
X
1
3
4
2
1
6 fr
         
         
         
         
         
X
4
3
1
2
X

Em

variations
6 fr
         
         
         
         
         
X
1
3
4
2
1
         
         
         
         
         
X
X
1
3
4
2
3 fr
         
         
         
         
         
X
4
2
1
X
X
6 fr
         
         
         
         
         
X
1
X
X
2
1
3 fr
         
         
         
         
         
X
4
3
1
2
X
11 fr
         
         
         
         
         
1
3
4
1
1
1

Am7

variations
4 fr
         
         
         
         
         
1
3
1
1
1
1
6 fr
         
         
         
         
         
X
X
1
4
2
3
         
         
         
         
         
1
X
1
1
1
X
4 fr
         
         
         
         
         
1
3
1
1
4
1
4 fr
         
         
         
         
         
1
3
1
1
4
X
9 fr
         
         
         
         
         
X
2
1
3
1
4

11 fr
         
         
         
         
         
X
1
3
1
2
X
11 fr
         
         
         
         
         
X
1
3
1
2
4

Cm7

variations
4 fr
         
         
         
         
         
X
1
3
1
2
1
9 fr
         
         
         
         
         
1
3
1
1
1
1
4 fr
         
         
         
         
         
X
1
X
2
4
3
         
         
         
         
         
X
2
1
3
1
4
4 fr
         
         
         
         
         
X
1
3
1
2
4
         
         
         
         
         
X
4
2
1

9 fr
         
         
         
         
         
1
3
1
1
4
1
11 fr
         
         
         
         
         
X
X
1
3
2
2
3 fr
         
         
         
         
         
X
1
3
1
2
1
8 fr
         
         
         
         
         
1
3
1
1
1
1
         
         
         
         
         
X
1
X
2
4
3
         
         
         
         
         
X
2
1
3
1
4
3 fr
         
         
         
         
         
X
1
3
1
2
4
8 fr
         
         
         
         
         
1
3
1
1
4
1

10 fr
         
         
         
         
         
X
X
1
3
2
2
         
         
         
         
         
2
3
1
4
6 fr
         
         
         
         
         
X
2
1
1
4
3
7 fr
         
         
         
         
         
X
1
3
3
3
3
9 fr
         
         
         
         
         
4
3
1
1
1
1
         
         
         
         
         
X
2
1
         
         
         
         
         
X
2
3
1
4
5 fr
         
         
         
         
         
X
1
1
1
1
5 fr
         
         
         
         
         
1
3
1
1
1
1
5 fr
         
         
         
         
         
1
3
1
1
4
1
7 fr
         
         
         
         
         
X
1
4
2
3

10 fr
         
         
         
         
         
X
2
1
3
1
4
12 fr
         
         
         
         
         
X
1
3
1
2
4
5 fr
         
         
         
         
         
X

Dsus4

variations
         
         
         
         
         
X
X
1
3
4
2 fr
         
         
         
         
         
X
3
4
1
2
X
5 fr
         
         
         
         
         
X
1
3
3
4
1
5 fr
         
         
         
         
         
X
1
1
3
4
1
10 fr
         
         
         
         
         
1
3
3
3
1
1
10 fr
         
         
         
         
         
1
1
3
4
1
1

12 fr
         
         
         
         
         
X
X
1
3
4
4

Dsus2

variations
         
         
         
         
         
X
X
3
4
2 fr
         
         
         
         
         
X
3
1
1
2
4
2 fr
         
         
         
         
         
X
2
1
1
3
4
5 fr
         
         
         
         
         
X
1
3
4
1
1
7 fr
         
         
         
         
         
4
1
1
1
X
X
9 fr
         
         
         
         
         
X
X
3
1
2
4

Am

variations
4 fr
         
         
         
         
         
1
3
4
1
1
1
6 fr
         
         
         
         
         
X
X
1
3
4
2
4 fr
         
         
         
         
         
X
X
3
1
1
1
         
         
         
         
         
4
2
1
X
X
X
8 fr
         
         
         
         
         
X
4
3
1
2
X
11 fr
         
         
         
         
         
X
1
3
4
2
1

D/C

         
         
         
         
         
X
3
1
2
1

D/C

         
         
         
         
         
X
3
1
4
2
No chord
    
Standard guitar tuning:
E
A
D
G
B
E
Capo on 2 fret

E B Cm A

EThe clock's running Bdown, the team's losing Cmground, to the Aopposing defense The young quarterback waits for the snap when suddenly it all starts to make sense EHe's got all kinds of Btime, he's got all kinds of Dtime, all kinds of Atime He's got all kinds of time, all kinds of time He takes a step back, he's under attack, but he knows that no one can touch him now He seems so at ease, a strange inner peace is all that he's feeling somehow He's got all kinds of time, he's got all kinds of time, all kinds of time He's got all kinds of time, all kinds of time He Amthinks of his mother, he thinks of his bride-to-Ebe B He Amthinks of his father, his two younger brothers BGathered around the widescreen TV D--E6b~~~~~-B6b~~~~~-D7b~~~~~-A7b~~~~-

Easi

He looks to the left, he looks to the right, and there in a golden ray of light Is his open man just as he planned, the whole world is his tonight EAll kiBnds ofD time.A.. Barbara B.

Verse 1

Dfor a small girl Dbarbara sure has got a big crush Dthe kind that makes you want to Gbreak stuff Gand blame it on a man you don't Dknow

Verse 2

Dshe came down Dto new york city in a big bus Dnine hours driving and you Gcan't just stay home Gso it doesn't matter which way you Fgo A

Chorus

because Gall Dday Athe radio's been playing the Gsame Dsong Acan't shake that tune but Git's Dok Amaybe the world isn't so Gsmall Gbarbara Bknows it doesn't matter at Dall Interlude D

Verse 3

Dand each day Dbarbara wakes up in a bad way Dtells me quietly she has absolutely Gnothing to say Gbut i don't seem to mind

Verse 4

Dshe say's Dshe won't listen to the band play Dshe hates songs that never Gseem to go away Gnow neither will Fmine A

Chorus

and now Gall Dday Athe radio's been playing the Gsame Dsong Acan't shake that tune but it's GokD Amaybe the world isn't so Gsmall Gbarbara Bknows it doesn't matter at all

Interlude

GD

G F A

Chorus

and now Gall Dday Athe radio's been playing the Gsame Dsong Acan't shake that tune but it's GokD Amaybe the world isn't so Gsmall Gbarbara Bknows it doesn't matter at all Dbarbara kGnows Gbarbara Bknows it doesn't matter at all ARTIST: Fountains of Wayne SONG: Bright Future in Sales TABBER: DJSeebs Notes: My god, that riff is catchy... MODIFIED 9/7/03: Added solo
Main Riff
|------------------------------------------
|------------------------------------------
|------------------------------------------
|-------------5-6-7------------------------
|0--3-4-5---3-------0---3-5-5s6-5-3--------
|-------------------------------------------

Verse

|----------------------------------------------------------------
|---------------------------------7-7-7-7-7-7-7-7-------7--7--7--
|-7-7-7-7-7-7-7-7-2-2-2-2-2-2-2-2-7-7-7-7-7-7-7-7-------7--7--7--
|-7-7-7-7-7-7-7-7-2-2-2-2-2-2-2-2-5-5-5-5-5-5-5-5---3-4-5--5--5--
|-5-5-5-5-5-5-5-5-0-0-0-0-0-0-0-0-----------------5--------------
|----------------------------------------------------------------
|---------------------------------7-7-7-7-7-7-7-7----------------
|-7-7-7-7-7-7-7-7-2-2-2-2-2-2-2-2-7-7-7-7-7-7-7-7-7-7-7-7-7-7-7--
|-7-7-7-7-7-7-7-7-2-2-2-2-2-2-2-2-5-5-5-5-5-5-5-5-7-7-7-7-7-7-7--
|-5-5-5-5-5-5-5-5-0-0-0-0-0-0-0-0-----------------5-5-5-5-5-5-5--
|-----------------------------------------------------------------
|-----------------------------------------------------------------
|-7-7-7-7-7-7-7-7-----------------7-7-7-7-7-7-7-7---------(long)--
|-7-7-7-7-7-7-7-7-7-7-7-7-7-7-7-7-7-7-7-7-7-7-7-7-4--4---4-///--9-
|-5-5-5-5-5-5-5-5-7-7-7-7-7-7-7-7-5-5-5-5-5-5-5-5-4--4---4-///--9-
|-----------------5-5-5-5-5-5-5-5-----------------2--2---2-///--7-
|-----
|-----
|--7--
|--7--
|--5--
|-----

Chorus

|----------------------------------------------------------------
|----------------------------------------------------------------
|------9--9------------------------------------------------------
|-7-7--9--9---9--9----9--9-9-9-----------------------------------
|-7-7--7--7---9--9----9--9-9-9-----------------------------------
|-5-5---------7--7----7--7-7-7-----------------------------------
(note: this E here is tricky... i THINK the bass is playing the low E while the guitarists are doing this one, so it's tough to get. IF you want, try playing |--- |--- |--- |-2- |-2- |-0- instead, and see what you like)
|----------------------------------------------------------------
|----------------------------------------------------------------
|-----------------4-4-4-4-4-4-4-4-----------------7--------------
|-4-4-4-4-4-4-4-4-4-4-4-4-4-4-4-4-5-5-5-5-5-5-5-5-7--------------
|-4-4-4-4-4-4-4-4-2-2-2-2-2-2-2-2-5-5-5-5-5-5-5-5-5--------------
|-2-2-2-2-2-2-2-2-----------------3-3-3-3-3-3-3-3----------------

Bridge

|----------------------------------------------------------------
|----------------------------------------------------------------
|-9--------------------9-----------------------------------------
|-9----------9---------9---------9---10-12-----------------------
|-7----------9---------7---------9---10-12-----------------------
|------------7-------------------7---8--10-----------------------

Solo

Oh, man... i suck at tabbing solos. Well, here's my best shot. This IS NOT 100% accurate. Put LOTS of auto-wah on this beast
|--------------------|----------|---------------------------------------------------
|-9s10--10^-8p5h8-5--|----------|---------------------------------------------------
|--------------------|-5h7-5-0--|-/5--0--5-7/9/7-5--12/14-(jam 14 for a while)------
|-------------------------------|---------------------------------------------------
|--------------------|----------|---------------------------------------------------
|--------------------|----------|---------------------------------------------------
|-----------------/12|--------17|---------------------------------------------------
|-9s10--14p10h14-----|-14p12----|-13p10-13p10-13p10----10---------------------------
|--------------------|----------|-------------------12------------------------------
|--------------------|----------|---------------------------------------------------
|--------------------|----------|---------------------------------------------------
|--------------------|----------|---------------------------------------------------
Someone PLEASE fix this
End on
|-----
|------
|--7---
|--7---
|--5---
Lyrics (as best as I can tell) Sleepin' on a planner at the port authority, waitin' for my bus to come, Seven scotch and sodas at the office party Now I don't remember where I'm from I think I had a black wallet In my back pocket With a bus ticket And a picture of my baby inside And if I make it home alive I'm gonna get my *** together Cause I can't live like this forever, You know I've come too far and I don't wanna flip I gotta new computer and a bright future in sales yeah yeah (Yeah yeah), bright future in sales yeah yeah Yeah yeah Headin' for the airport on a misty morning Gonna catch a flight to Baltimore Try to kill an hour with a whiskey-sour If there's time i might have just one more I gotta do some, quick readin' for the big meetin' but my head is spinning and i can't quite open my eyes as long as I don't have to drive I'm gonna get my *** together Cause I can't live like this forever, You know I've come to far and I don't wanna flip I gotta new computer and a bright future in sales yeah yeah (Yeah yeah), bright future in sales yeah yeah (Yeah yeah), bright future in sales yeah yeah (Yeah yeah), bright future in sales yeah yeah yeah yeah I had a line on a brand new account But now i can't seem to find where i wrote that number down, I try to focus, I'm starin' at the screen, Pretendin' like a know what all these little flashing lights mean "Denise" by Fountains of Wayne From the album UTOPIA PARKWAY Just a little guide to help you in the reading of this transcription. The cords F+, and F#+ are played by playing power cords in the 8th and 9th positions respectively. The reason for the + sign is to distinguish those cords from F# that is played in the 2nd position during the Bridge and the Chorus. The song is fun to play, and for ultimate realism, turn the treble and middle way up on your amp to produce a great fuzzy sound.

Verse 1

Bflat F+ F+ F+ I know this girl named Denise Bflat F+ F+ F+ She makes me weak at the knees Bflat F+ F+ F+ She drives a lavender Lexus Bflat F+ F+ F+ She lives is Queens but her dad lives in Texas

Bridge

F C Eflat Sha-la-la-la-la-la-la, When she holds me F C Eflat Sha-la-la-la-la-la-la, I can't help myself F C Eflat Sha-la-la-la-la-la-la, Won't you tell me?

F F

Do you love me Denise? Whoa-ah!

F F

Do you love me Denise?

Chorus

C

Oh baby, tell me please, (do-ya, do-ya, ah-oh, do-ya do-ya ) Aflat Ah-oh, do-ya, do-ya, Ah-oh, do-ya, do-ya Bflat F Oh baby, tell me please, (do-ya, do-ya, ah-oh, do-ya do-ya ) Main Riff 2X: Bflat F+ F+ F+ I heard she used to be married Bflat F+ F+ F+ She listens to Puff Daddy Bflat F+ F+ F+ She works at Liberty Travel Bflat F+ F+ F+ She gotta heart made of gravel

Bridge

F C Eflat Sha-la-la-la-la-la-la, She controls me F C Eflat Sha-la-la-la-la-la-la, She can't help herself F C Eflat Sha-la-la-la-la-la-la, Won't you tell me?

F F

Do you love me Denise? Whoa-ah!

F F

Do you love me Denise?

Chorus

X2 Lead:
E --------------------------------
A---------------------------------
D----------8--6--8-------8---6---- X3
G-----8b-------------6------------
B-----8b--------------------------
E---------------------------------
E -----------------------------------------------------------------------------------
A ---------------------------------------------------------------------------------9-
D -6----------6---8---6---6-----------------------------6----/8----------------------
G ------\10----------------------10---\11----8----------------------------10------10-
B -----------------------------------------------------------------------------------
E -----------------------------------------------------------------------------------

Chorus 2x

Main Riff A Fine Day For A Parade Artist: Fountains of Wayne Album: Utopia Parkway Song: A Fine Day For A Parade

Intro riff

 C          Bm        C          Bm
e|----------------------------------------------------|
B|----------------------------------------------------|
G|--------0-----------3----------0-----------3--------|
D|-----6-----6-----3----3-----6-----6-----3------3----|
A|--4-----------1----------4-----------1--------------|
E|----------------------------------------------------|

Verse 1

CMrs. Carver Bmsays she's sorry CShe knows Bmenough to worry FmBut what does she know about crime? CBelieves the Bmtown is sinking CThe price of Bmforward thinking FmYou stay up all night half the time FRacking your Cmind FAlone at Cnight FWhile all the neighbors Fmsleep tight

Verse 2

CYears ago she Bmlost her daughter COff to a Bmsacred order FmWhere they get stoned and work the earth CClears up her Bmhead with bourbon CCause beer is Bmso suburban FmAnd declasse for what it's worth

Chorus

FShe drinks it Adown down Bmdown FFor all of the Aold old Bmdays FShe's thinking of it now It's Bmnice to get away But what a Cfine day for a paFrade Fm

Verse 3

CShe stays up Bmmending curtains CUntil her Bmfingers hurt, and FmYou can get so bored of it all CNo one can Bmsay for certain CShe'll never Bmsafely know when FmAn asteroid will kill us all

Chorus

x2) FShe drinks it Adown down Bmdown FFor all of the Aold old Bmdays FShe's thinking of it now It's Bmnice to get away But what a Cfine day for a paFrade A (repeat and fade)

D B A D A B

Verse 1

DDriving on the lD/Bawn EmSleeping on the rA7oof GmDrinking all the CalcoholF Fsus4 F GmAll the Ckids from school Will be Anaked in the Dmpool While our Gmparents are onC Fire IslanFd A

Verse 2

same chords): Cranking up the tunes 'Til the windows break Feeding chocolate to the dog Jumping on the couch 'Til the feathers all come out While our parents are on Fire Island (Don't play the last A chord)

Chorus

GmWe're old enough by Cnow To Ftake care of each othBer A GmWe don't need no Cbabysitter FWe don't nAeed no Bfather or mother A GmWe're old enough by Cnow FDon't worry 'bout a Bthing GmDon't you remember GmLast December When you Bwent to Steamboat SprinGmgs? C

Solo

same chords as verse)

Chorus

Verse 3

Driving on the lawn Sleeping on the roof Drinking all the alcohol All the kids from school Will be naked in the pool While our parents are on Fire Island (end with an F) Go, Hippie Artist : Founatins of Wayne Album : Utopia Parkway Song : Go, Hippie Intro Gm B C E (x4)

Verse 1

GmGo, Bhippie CSkip down the Eold road GmDon't even Bsee me, do you Dmat all CmSome days you get so tired of Fhanging CmTrying to deep-fry all your Fboredom

Verse 2

GmBig Bhippie CThis day was Eso slow GmAnd I can Bsee you feel it Dmtoo CmSometimes you wish you knew kaFrate CmOh, the things that you could Dmdo, like

Chorus

GCrossing in between the Cgreens CJust because you Gwant to GNot because you Dought to Oh, Chow can you ever exDplain CThey can never feel your Dpain DNeither can Cmyou F Interlude Gm B C E (x2)

Verse 3

GmMr. BCrabtree CSits in the Ewindow GmHe sees a Blot, but he don't Dmknow CmThat was you across the Fyard CmThrowing brownies at his Fcar

Verse 4

GmSweet Bhippie CKeeping your Ehead low GmAround the Bcar park you Dmswing low CmSome days it all falls down aFround you CmSome days you fall down in the Dmsnow while

Chorus

GCrossing in between the Cgreens CJust because you Gwant to GNot because you Dought to Oh, Chow can you ever exDplain CThey can never feel your Dpain DNeither can Cmyou F Outro Gm B C E (x14) Hat And Feet

Verse 1

EI'm just a Ahat and Efeet A EThat's all that's Aleft of Eme EA spot on the Bsidewalk BA mark on the Astreet AI'm just a Ehat Aand Efeet AI'm just a Ehat Aand Efeet B

Verse 2

EYou dropped a Abomb on Eme A EI didn't Aeven Esee ELike a falling Bpiano BFrom out of the Awindow ANow I'm just a Ehat Aand Efeet AI'm just a Ehat Aand Efeet

Bridge

CI'm just a sitting duck CThat ran out of luck AI'm the unhappy guy AThat didn't look up high CI started running when I saw it coming CIt got Afaster and louder til I took a powder

Verse 3

ENow I'm just a Ahat and Efeet A EThat's what's Abecome of Eme EFlat on the Bsidewalk BStuck in the Astreet AI'm just a Ehat Aand Efeet AI'm just a Ehat Aand Efeet

Bridge

CI'm just a sitting duck CThat ran out of luck AI'm the unhappy guy AThat didn't look up high CI started running when I saw it coming CIt got Afaster and louder til I took a powder

Verse 4

EI'm just a Ahat and Efeet A EThat's all that's Aleft of Eme EA spot on the Bsidewalk BA mark on the Astreet AI'm just a Ehat Aand Efeet AI'm just a Ehat Aand Efeet

G C G D G C G D

GWorking all Cday for a Gmean little Dman With a Gclip-on Ctie and a Grub-on Dtan He's got me Emrunning 'round the Coffice like a Ddog around a Gtrack But Emwhen I get back Chome, you're always Dthere to rub my Gback

Chorus

GHey CJulie, DLook what they're Cdoing to me EmTrying to trip me Cup Trying to Dwear me Gdown GJulie, I Cswear, it's Dso hard to Cbear it And I'd Emnever make it Cthrough withDout you Garound No I'd nEmever make it tChrough withoDut you aGround GHours on the Cphone making Gpointless Dcalls I got a Gdesk full of Cpapers that means Gnothing at Dall SomeEmtimes I catch myCself Dstaring into Gspace EmCounting down the Chours 'til I Eget to see Gyour face GHey CJulie, DLook what they're Cdoing to me EmTrying to trip me Cup Trying to Dwear me Gdown GJulie, I Cswear, it's so Dhard to Cbear it And I'd Emnever make it Cthrough with Dout you aGround No, I'd Emnever make it Cthrough with Dout you aGround

Bridge

EmHow did it come to Bmbe That you and I must Cbe Far away from each Dother every day? EmWhy must I spend my Bmtime Filling up my Cmind With facts and figures that Dnever add up anyway? They Cnever add up anyway GWorking all Cday for a Gmean little Dguy With a Gbad touCpee and a Gsoup-stained Dtie He's got me Emrunning 'round the Coffice Like a Dgerbil on a Gwheel He can Emtell me what to Cdo But he can't Dtell me what to Gfeel GHey CJulie, DLook what they're Cdoing to me EmTrying to trip me Cup Trying to Dwear me Gdown GJulie, I Cswear, it's Dso hard to Cbear it And I'd Emnever make it Cthrough withDout you Garound No I'd nEmever make it tChrough withoDut you aGround No I'd nEmever make it tChrough withoDut you aGround While I dGown Kentucky bourbon I am Cwaiting for a call And the Dmoon and stars tonight Are playing Gshadows on the wall With the Gmoon the way it is, dear Would you Canswer out of spite Or Dare you feeling lonely toGnight Cause GI remember last time We were Cout under the stars Driving Dcrooked down the highway Drinking Gbeer in roadside bars And Gnow and then I wonder Why this Cpainful memory Can Dnever find its way to you from Gme

Chorus

GAnd I can't dial the phone just now Even Cthough I know your number Can't Dbring my broken heart to be Guntrue GLike you did today You'll say Cgoodbye the same old way DEver since you hung up on me I'm hung up on Gyou Well the house I'm ringing up from Is a half a mile from you But with the reception I'm getting Might as well be Timbuktu And behind the door of your home Is a strange and foreign land Where you speak a language I don't understand

Chorus

Now I'm going down to Jimmy's bar Like a thousand other times With an appetite for poison And a suitcase full of dimes And I'll wait there by the payphone With one hundred other guys With those sorry hung-up teardrops in our eyes

Chorus

I want an alien for Christmas is not available at this time. Date: Sun, 29 Mar 1998 00:43:54 +0000 From: Tim Ford Subject: CRD: f/fountains_of_wayne/kid_gloves.crd Intro D Em7(1) D G/B X2 DShe's wearing Em7kid gloves D G/B Will Dhandle me Em7carefully D G/B Cause GI've got a history, A7cracked up and fragile Bm A *G to [G/f#] Em7(2) And bound to break easy (* don't play the full bar, hit the F# note of the G/F# chord, on the E string, on the last beat and go straight to Em7) DAnd if Em7she could talk Dto me G/B What Dgood would it Em7do me D G/B It's no Gsecret where I've been and A7I have worn so thin And Bmshe can see Cadd9through me D

Chorus 1

G [G/f#] Em A I don't believe a word of it G [G/f#] Em A Can't come around to her now that I've heard of it Cadd9Now that her soft touch is Dgone AmShe's got her kid gloves on (riff 2) (riff 2 repeats from the end of the first chorus more or less to the end of the song but its down in the mix and hard to tell)

D Em7(1) D G/B X2

DHere is what Em7I've found D G/B New DYork just Em7gets me downD G/B When the Ggoing got tough, A7I got a bus ticket Bm A G to [G/f#] Em7(2) Back to my home town And Dall the way Em7I dreamed D G/B DFlesh wrapped in Em7velveteen D G/B And the Groad wrapped around me, the A7long lonely highway Gulped Bmdown by a Cadd9Greyhound D

C

E

Chorus 2

G [G/f#] Em A I don't believe a word of it G [G/f#] Em A Can't come around to her now that I've heard of it G [G/f#] Em A Won't come around cause I'll only get hurt and it Cadd9Now that her soft touch is Dgone Cadd9How could she ever go Don AmWithout her kid gloves Don Repeat D Em7(1) D G/B X6 and end on D
                   1231231231231   Em7 (1)   Em7(2)   D5
|e----------|--0--0--0---------|---3---------3--------4-|
|B----------|---3--3--3230-----|---3---------3--------2-|
|G----------|-------------2----|---0---------0--------1-|
|D----------|------------------|---2---------2--------0-|
|A--3-2-0---|------------------|---x---------2--------0-|
|E----------|------------------|---x---------0--------x-|
riff 1 riff 2 chords... LEAVE THE BIKER - Fountains of Wayne
--------

Chorus_1

GHe's got his Emarm around Cevery man's Gdream And Gcrumbs in his Embeard from the Cseafood Dspecial Oh Gcan't you see my G7world is Cfalling aCmpart Baby Gplease leave the Dbiker leave the Cbiker break his Gheart Baby Gplease leave the Dbiker
          C               G
leave the biker break his heart
--------
GNow his friend leans Cover and says DLooks like we Cgot us a Gfag I Gwonder if that guy's Cread one word That Dwasn't in a porno Emmag And I Cwonder if he ever has cried Cause his Cmkitten got run over and died Repeat Chorus_1

A D E D A

A D E E Fm Fm

And I Dwonder if he ever has cried Cause he Dmcouldn't get a date for the prom
--------

Chorus_2

AHe's got his Fmarm around Devery man's Adream And Acrumbs in his Fmbeard from the Dseafood Especial Oh Acan't you see my A7world is Dfalling aDmpart Baby Aplease leave the Ebiker leave the Dbiker break his Aheart Baby Aplease leave the Ebiker leave the Dbiker break his Aheart Baby Aplease leave the Ebiker leave the Dbiker break his Cheart D A

G C

GSitting in traffic on the CTappan GZee / fifty million people out in front of me CTrying to cross the water but it just might be a Gwhile C G Rain's coming down I can't see a thing / radio's broken so I'm whistling CNew York to Nyack Gfeels like a hundred Dmiles It's not Emright, it's not Gfair / I'm still a mess and you still don't care I go to work, I come back home But you're still Emgone, and I'm still Dalone And the Clittle red light's not blinking / no, no the little red light's not blinking No, no the Glittle red light's not blinking On my Cbig Cblack CplasCtic CJapanese Ccordless Gphone, Coh Gno, Coh Gno C G C G Stuck in a meeting on Monday night / trying to get the numbers to come out right I'm getting tired, I think I just might need a drink And as I'm reaching in the bottom drawer / I'm dreaming 'bout the way it was before Life was so easy I never really had to think It's not right, it's not fair / I'm still a mess and you still don't care I go to sleep, when I wake up The pain sets in and it never stops And the little red light's not blinking / no, no the little red light's not blinking No, no the little red light's not blinking On the desktop mailbox of my big black laptop, oh no It's not right, it's not fair / I'm still a mess and you still don't care I go to work, I come back home But you're still gone and I'm still alone And the little red light's not blinking / no, no the little red light's not blinking No, no the little red light's not blinking On my big black Radio Shack digital portable phone, oh no He was Fkilled by a cellular Cphone explosion They Emscattered his ashes aBcross the ocean The water was used to make baby lotion The wheels of promotion were set into motion But the Fsun still Cshines in the Bsummer time I'll be yours if you'll be mine I tried to change, but I changed my mind Think I'll Emhave another Cglass of BMexican Fwine
E---6-6-6--4-2--4-6-4-6--
B---7-7-7--6-4--6-7-6-7--
E-F---6h7-- (x3) FShe lived alone in a Csmall aCparDtment EmAcross the EmstreCet from the Bhealth deBmpartment She left her pills in the glove compartment That was the afternoon her heart went And the sun still shines in the summer time I'll be yours if you'll be mine I tried to change, but I changed my mind Think I'll have another glass of Mexican wine Think I'll have another glass of Mexican wine
   A             E           B             C
E---------4--------------------------2------------------
B-------------------------------------------------------   (x2)
G--5h6-8----5-5-3-5-5h6-5-3----3h4-6---3-3-1-3-3h4-3-1--
AI used to fly for EUnited EAirElines FmThen I got FmfirEed for Creading CmHigh Times My license expired in almost no time Now I'm retired and I think that's fine Because the Asun still Eshines in the Csummertime I'll be yours if you'll be mine I tried to change, but I changed my mind Think I'll Fmhave another Eglass of CMexican Cmwine Because the sun still shines in the summertime I'll be yours if you'll be mine I tried to change, but I changed my mind Think I'll Fmhave another Eglass of CMexican Awine Think I'll have another glass of Mexican wine Won't you have another glass of Mexican wine

C A C A A

G hC (x2)
G            hC
      E------7---5--------8-
      B--------8---8-5--8--- (x6)
      G---------------------
      D--5------------------
G hC G hC G hC G hC Is that supposed to be your poker face, or was someone run over by a train And you were minding your own business, but you're begging for forgiveness just the same And it's Crunning back and forth inside your mind Just how that town deEmfined you, dressed you up, Ampainted your face And Gnow you're leaving New York, Dm Cfor no better Gplace You're awake and trying not to be, wrapped around your pillow like a prawn And the nighttime's wrapped around you, will be until it drops you on the dawn From the C train to the shiny tower, kicked around Till happy hour found you, where you can drink that smirk right off your face And now you're leaving New York, for no better place And Dhere is your reflection in a Cbuilding uptown A Emghost inside some Madison DAvenue display Like Cwater under bridges, you're slowly passing by As you Amsail between the rooftops and the Dsky

C Em G Dm C G Dm C G

And the bourbon sits inside me, right now I'm a puppet in its sway And it may be the whiskey talking, but the whiskey says I miss you every day So I taxi to an all-night party, park me in the corner in an old chair Sip my drink and stare out into space And now you're leaving New York, for no better place And now you're leaving New York, for no better place repeat and fade) G hC means:
E--3----3--
B--3----3--
G--0----0--
D--0---h2--
A--2---h3--
E--3-------
Prom Theme Chris Collingwood and Adam Schelsinger Fountains of Wayne from "Utopia Parkway" BHere we are at last. The Am7moment soon will pass We'll Cm7go our separate ways. We'll Emvanish in the haze BWe'll never be the same. We'll forAm7get each other's names. We'll grow Cm7old and lose our hair. It's Emall downhill from there. EBut tonight we'll Emreach for the Bstars. We'll rent exEmpensive Bcars And Fdream our Cm7dreams of a Fperfect Cm7night F [E-5] E B And we'll sing our prom theme [E-5] E Em B (The break is an instrumental with heavy strings that is basically a repeat of the verse and chorus but goes off on a discordant tangent at one point, then comes back to...) BHere we are at last. We're Am7running out of gas. The Cm7air is getting thick. The Emgirls are getting sick. BWe'll pass out on the beach, our Am7keys just out of reach. And Cm7soon we'll say goodbye, then we'll Emwork until we die. EBut tonight we Emfeel like we're Bstars. We'll Emplay our air guiBtars 'cause Fwe're eighCm7teen. It's a Fperfect Cm7night F [E-5] E B to sing our prom theme. [E-5] E Em B END (I'm not sure if E-5 is the right name for that chord. It's an E with a regular fifth and a flatted fifth, first four strings only 0-2-2-3) Radiation Vibe RCecordeCod by FountaiAdamns of Wayne, 1996

Intro

A chord w/ this riff (4x):
     |----------------------------------------|
     |----------------------------------------|
     |----------------------------------------|
     |--2---4---2---h4---s6---6---4---2-------|
     |--0---0---0----0----0---0---0---0-------|
     |----------------------------------------|
AAre you alone now did you lose the monkey DHe gave you backaches and now you slAouch AHe didn't mean it he's just a dumb ape DReading Playboy on your cAouch DAnd now it's time to say EWhat I forgot to say ABaby, baby, baby, CFm'mon what's wrong AIt's a Radiation ViDbe I'm grEoovin' on ADon't it make you waEnna get some sDun E6Shine Eon, E6shine Eon, E6shine Eon Repeat Intro w/Shaft-style wah-wah

Verse ii

I went to Pittsburgh and joined a pro team Talk about a bad dream I broke my knee But I can still croon and make the girls swoon Isn't that the way life's supposed to be And now it's time to say what I forgot to say

Chorus ii

Baby, baby, baby, C'mon what's wrong It's a Radiation Vibe I'm groovin' on Don't it make you wanna get some sun Shine on, shine on, shine on E6Shine Eon, E6shine Eon, E6shine Eooooon 1/2 verse with "Doo doo doo doo" vocals And now it's time to say what I forgot to say Repeat chorus I and II, end on A (let it ring) Tab/Chord interpretation by Craig Carlson Red Dragon Tattoo

Verse 1

AMonday gonna take a ride on AThe N train down Coney Island With the Dmoney I Asaved Gonna Dget me Aengraved ADrink down a lot of Basil Hayden AGet kicked out when I can't see straight and What an Disland to Abe on DUnder the Aneon

Chorus

ARed dragon ETattoo EIs just about on me EI got it for Ayou ASo now do you want me AWith nothing to Eprove EWill you be my honey, oh yeah IAn you i conDfide Red Adragon tatDtoo I'm Efit to be dyed Am I Bmfit to have Ayou

Verse 2

AI hear the man say you want to see the others AA mermaid and a heart that says mother But DI don't know Afrom maritime And DI never did Ahard time AI brought a .38 Special CD collection ASome Bactine to prevent infection And in Dcase I get Aqueasy A Dphoto of AEasy Rider

Chorus

ARed dragon ETattoo EIs just about on me EI got it for Ayou ASo now do you want me AWith nothing to Eprove EWill you be my honey, oh yeah IAn you i conDfide Red Adragon tatDtoo I'm Efit to be dyed Am I Bmfit to have Eyou

Bridge

DWill you stop pretending I've never been born FmNow I look a Dlittle more like Fmthat guy from Korn DIf you came a little bit Ecloser EYou'd see it isn't Apainted on

Chorus

ARed dragon ETattoo EIs just about on me EI got it for Ayou ASo now do you want me AWith nothing to Eprove EWill you be my honey, oh yeah IAn you i conDfide Red Adragon tatDtoo I'm Efit to be dyed

Outro

BmAm I fit to Ehave you AIn you i coDnfide Red Adragon tatDtoo I'm Efit to be dyed Am I Bmfit to have Ayou She' Got a Problem RCecordeCod by FountaiAdamns of Wayne, 1996

Intro

F B C

FI know a girl who should neBver Cbe aFlonBe C FI know a girl who should neBver Cbe aFlonBe C She's a dBanger to herCself And I'm wBorried about her hCealth CShe's Got a DmProblAmem And she's goBnna do someCthing dFumb I know a girl who you've got to keep an eye on Every time she goes outside She barely gets home alive She's Got a Problem And she's gonna do something dumb Oh yeDmah and Am7I can see the signs Oh yeDmah cause she's oAm7nly killing time Oh yDmeah Oh yAm7eah and she'Bs not lonCg for thisF woBrld C Solo over verse chords CShe's Got a DmProblAmem And she's goBnna do someCthing dDmumb B C CShe's Got a FProblem And she's goBnna do someCthing dFumb End on F Tab/Chord interpretation by Craig Carlson Sick Day Collingwood/Schlesinger Fountains of Wayne, 1996

Verse i

Start with fade into Am7 - Dsus4-D-Dsus2 Am7Check out the girl in the hDsus4arbor DtuDsus2nnel Am7Crawling to work, sDsus4ix feeDt Dsus2under And the Cday has barely bGegun TChey're all chewing gGum and lDaughing At the vAm7oice of the cracklin Dsus4radio DstDsus2ation Am7Lead us not inDsus4to PenDn Dsus2Station And the bCest parts just bGegun We're aCll becoming oGne, aDgain Am7 Em Am7 [C?] And she's making the scene with her coffee and cream And the copy mGachines not wDorking Am7 Em Am7 [C?] She's a hell of a girl, she's alone in the world And she likes to say `HGey good lDookin' Am7She's on her wDay Am7She's taking a sDick day B - C [?] Soon.. Am7 - Dsus4-D-Dsus2 [2x]

Verse ii

And here is the man pushing paper past her Thinks of ways to make the day go faster But the day goes on and on He dreams of his lawn and all about The pretty careerist the next cube over The fat secretary the lunch-time lover Till the Path train finally comes The platforms full of bums again Chorus II [same as I] Solo over verse chords Chorus III And she's taking her time, as she's tossing a dime At the man in the cardboard coffin It doesn't have to be fine, she's ahead of the line And doesn't have to be here too often She's making a play Bb - C - G [let ring, and false end] She's taking a sick day soon Drum fill and: Fade out over Am7 - D OK, there's some mistakes/simplifications in this one, but it ought to get you started. Tab/Chord interpretation by Craig Carlson Sink to the Bottom Collingwood/Schlesinger Fountains of Wayne, 1996 Verse I [solo voice and guitar]: N.C.I wanAna Esink to the bAottom with Cmyou A AI wannaE sink to the Abottom withCm you A The oEcean is bAig and bCmlue A AI just wannaE sink to the Abottom withCm you Chorus [band enters]: ACars on the hEighway, pAlanes in the Cmair AEveryone eElse is goAing somewCmhere ABut I'm going nEowhere, gAetting there Cmsoon AI might as wEell just sAink down with Cmyou

Verse ii

I wanna sink to the bottom with you I wanna sink to the bottom with you The ocean is big and blue I just wanna sink to the bottom with you I just wanna... Solo over same chords

Chorus ii

Out on the highway, up in the air Everyone else is going somewhere They're going nowhere, and I'll be there too I might as well go under with you Repeat Verse I (2x) I just wanna...repeat end on E Pretty simple. Amazing what can still be done with four chords and some imagination. They might leave out the C#m on the solo part; I couldn't really tell. Tab/Chord interpretation by Craig Carlson Stacys Mom chords- STACY'S MOM - Fountains of Wayne This is how I play this great song. I hope it can help you if you need it:

E A B A

EStacy's mAom has gBot it goin' Aon (x4) E Stacy cAan I come Bover Aafter schEoolA? B A E we can hAang arBound by the pAoolE A B A E did your mAom get bBack from the bAusiness trEipA? B A E is she thAere or Bis she trying to gAive me the slEipA? B A You know I'm nAmot the little boy that I Aused to be I'm Amall grown up now bAaby can't you see?
---------

Chorus

AStacy's mEom has gBot it goin' Cmon she's Aall I wEant and I've wBaited for so lCmong AStacy can't you sEee you're just nAot the girl for mCme
    A                        B
I know it might be wrong but I'm in love with Stacy's...
---------
E Stacy's mAom has gBot it goin' Aon (x2) ...mom E Stacy dAo you remBember when I mAowed your lEawAn B A E your mom came AoutB with just a tAowel EonA B A E I could tAell she lBikes me from the wAay she stEared A B A E and the wAay she said:B "you missed a spAot over thEere"A B A And I knAmow that you think it's just a fAantasy but sAmince your dad walked out your mom could Ause a guy like me
---------

Chorus

AStacy's mEom has gBot it goin' Cmon she's Aall I wEant and I've wBaited for so lCmong AStacy can't you sEee you're just nAot the girl for mCme
    A                        B
I know it might be wrong but I'm in love with Stacy's...
---------

Solo

...CmomG D Em

C G B B

C G D Em

C C B B

Ending

CStacy's mGom has gDot it goin' Emon -she's got it goin' on- she's Call I wGant and I've wDaited for so lEmong -waiting and waiting- CStacy can't you sGee you're just nBot the girl for mEme CI know it might be wrongD I'm in love with CStacy's mGom oh-Doh oh-Emoh -I'm in love with- CStacy's mGom oh-Doh oh-Emoh -Wait a minute- CStacy can't you sGee you're just nBot the girl for mEme I knCow it might be wrong but DI'm in love with Stacy's mGom Stacys Mom Tabs-
Fountains of Wayne - Stacy's Mom
Intro
e|----------------------------------0-|
B|-----------------|----------------0-|
G|-----------------|------------------|
D|-----------------|------------------|
A|-2-2-2-7-7-7-7-7-|---6-7--7-7-7-7---|
E|-0-0-0-5-5-5-5-5-|-7------5-5-5-5---| (play 6 times)
3rd thru 6th time repeat: stacy's mom, has got it going on

Verse

e|-----------------|-----------------|-----------------|---------------0-|
B|-----------------|-----------------|-----------------|---------------0-|
G|-----------------|-----------------|-----------------|-----------------|
D|-----------------|-----------------|-----------------|-----------------|
A|-2-2-2-7-7-7-7-7-|---6-7-7-7-7-7-7-|-2-2-2-7-7-7-7-7-|---6-7-7-7-7-7---|
E|-0-0-0-5-5-5-5-5-|-7-----5-5-5-5-5-|-0-0-0-5-5-5-5-5-|-7-----5-5-5-5---|
stacy can I come over after scho-o-o-o-l? (after school)
e|-----------------|-----------------|-----------------|---------------0-|
B|-----------------|-----------------|-----------------|---------------0-|
G|-----------------|-----------------|-----------------|-----------------|
D|-----------------|-----------------|-----------------|-----------------|
A|-2-2-2-7-7-7-7-7-|---6-7-7-7-7-7-7-|-2-2-2-7-7-7-7-7-|---6-7-7-7-7-7---|
E|-0-0-0-5-5-5-5-5-|-7-----5-5-5-5-5-|-0-0-0-5-5-5-5-5-|-7-----5-5-5-5---|
we can hang around by the p-p-p-po-o-o-o-ool (hang by the pool)
e|-----------------|-----------------|-----------------|---------------0-|
B|-----------------|-----------------|-----------------|---------------0-|
G|-----------------|-----------------|-----------------|-----------------|
D|-----------------|-----------------|-----------------|-----------------|
A|-2-2-2-7-7-7-7-7-|---6-7-7-7-7-7-7-|-2-2-2-7-7-7-7-7-|---6-7-7-7-7-7---|
E|-0-0-0-5-5-5-5-5-|-7-----5-5-5-5-5-|-0-0-0-5-5-5-5-5-|-7-----5-5-5-5---|
  did your mom get back from her business trip?         (business trip)
e|-----------------|-----------------|-----------------|-----------------|
B|-----------------|-----------------|-----------------|-----------------|
G|-----------------|-----------------|-----------------|-----------------|
D|-----------------|-----------------|-----------------|-----------------|
A|-2-2-2-7-7-7-7-7-|---6-7-7-7-7-7-7-|-2-2-2-7-7-7-7-7-|---6-7-7-7-7-7-7-|
E|-0-0-0-5-5-5-5-5-|-7-----5-5-5-5-5-|-0-0-0-5-5-5-5-5-|-7-----5-5-5-5-5-|
Is she there or is she trying to give me the sli-i-i-ip (give me the slip)

Prechorus

e|-----------------|-----------------|-----------------|-----------------|
B|-----------------|-----------------|-----------------|-----------------|
G|-----------------|-----------------|-----------------|-------------r---|
D|-2-2-2-2-2-2-2-2-|-7-7-7-7-7-7-7-7-|-2-2-2-2-2-2-2-2-|-7-7-7-7-7---e---|
A|-2-2-2-2-2-2-2-2-|-7-7-7-7-7-7-7-7-|-2-2-2-2-2-2-2-2-|-7-7-7-7-7---s---|
E|-0-0-0-0-0-0-0-0-|-5-5-5-5-5-5-5-5-|-0-0-0-0-0-0-0-0-|-5-5-5-5-5---t---|
You know I'm not the little boy I'm all grown up now That I used to be baby can't you see?

Chorus

e|-0-0--0--0-0-0---|---------------|-0-0--0--0-0-0---|---------------|
B|-2-2--0--0-0-0-4-|-4-4-4---5--5--|-2-2--0--0-0-0-4-|-4-4-4---5--5--|
G|-2-2--1--1-1-1-4-|-4-4-4/6-6--6--|-2-2--1--1-1-1-4-|-4-4-4/6-6--6--|
D|-2-2--2--2-2-2-4-|-4-4-4---6--6--|-2-2--2--2-2-2-4-|-4-4-4---6--6--|
A|-0-0--2--2-2-2-2-|-2-2-2---4--4--|-0-0--2--2-2-2-2-|-2-2-2---4--4--|
E|------0--0-0-0---|---------------|------0--0-0-0---|---------------|
Stacy's mom has got it goin on, she's all I want and I've waited for so long
e|-0-0--0--0-0-0-0-|---------------|-----------------|---------------0-|
B|-2-2--0--0-0-0-0-|---------5--5--|-----------------|---------------0-|
G|-2-2--1--1-1-1-1-|-5-5-5---6--6--|-----------------|-----------------|
D|-2-2--2--2-2-2-2-|-4-4-4/6-6--6--|-7-7-7-7-7-7-7-7-|-9-9-9-9-9-9-9---|
A|-0-0--2--2-2-2-2-|-3-3-3---4--4--|-7-7-7-7-7-7-7-7-|-9-9-9-9-9-9-9---|
E|------0--0-0-0-0-|---------------|-5-5-5-5-5-5-5-5-|-7-7-7-7-7-7-7---|
Stacy can't you see you're just I know it might be wrong but not the girl for me, I'm in love with stacy's mom
e|----------------------------------0-|-----------------|----------------0-|
B|-----------------|----------------0-|-----------------|----------------0-|
G|-----------------|------------------|-----------------|------------------|
D|-----------------|------------------|-----------------|------------------|
A|-2-2-2-7-7-7-7-7-|---6-7--7-7-7-7---|-2-2-2-7-7-7-7-7-|---6-7--7-7-7-7---|
E|-0-0-0-5-5-5-5-5-|-7------5-5-5-5---|-0-0-0-5-5-5-5-5-|-7------5-5-5-5---|
Stacys mom has got it going on Stacys mom has got it going on

Verse 2

e|-----0-------0---|-----0-------0---|-----0-------0---|-----0-------0---|
B|---0---0---2---2-|---4---4---2---2-|---0---0---2---2-|---4---4---2---2-|
G|---------2-------|-4-------2-------|---------2-------|-4-------2-------|
D|-2---------------|-----------------|-2---------------|-----------------|
A|-----------------|-----------------|-----------------|-----------------|
E|-----------------|-----------------|-----------------|-----------------|
e|-----------------|-----------------|-----------------|---------------0-|
B|-----------------|-----------------|-----------------|---------------0-|
G|-----------------|-----------------|-----------------|-----------------|
D|-----------------|-----------------|-----------------|-----------------|
A|-2-2-2-7-7-7-7-7-|---6-7-7-7-7-7-7-|-2-2-2-7-7-7-7-7-|---6-7-7-7-7-7---|
E|-0-0-0-5-5-5-5-5-|-7-----5-5-5-5-5-|-0-0-0-5-5-5-5-5-|-7-----5-5-5-5---|
stacy do you remember when I mowed your lawn? (mowed your lawn)
e|-----0-------0---|-----0-------0---|-----0-------0---|-----0-------0---|
B|---0---0---2---2-|---4---4---2---2-|---0---0---2---2-|---4---4---2---2-|
G|---------2-------|-4-------2-------|---------2-------|-4-------2-------|
D|-2---------------|-----------------|-2---------------|-----------------|
A|-----------------|-----------------|-----------------|-----------------|
E|-----------------|-----------------|-----------------|-----------------|
e|-----------------|-----------------|-----------------|---------------0-|
B|-----------------|-----------------|-----------------|---------------0-|
G|-----------------|-----------------|-----------------|-----------------|
D|-----------------|-----------------|-----------------|-----------------|
A|-2-2-2-7-7-7-7-7-|---6-7-7-7-7-7-7-|-2-2-2-7-7-7-7-7-|---6-7-7-7-7-7---|
E|-0-0-0-5-5-5-5-5-|-7-----5-5-5-5-5-|-0-0-0-5-5-5-5-5-|-7-----5-5-5-5---|
Your mom came out with just a towel o-o-o-o-on (towel on)
e|-----0-------0---|-----0-------0---|-----0-------0---|-----0-------0---|
B|---0---0---2---2-|---4---4---2---2-|---0---0---2---2-|---4---4---2---2-|
G|---------2-------|-4-------2-------|---------2-------|-4-------2-------|
D|-2---------------|-----------------|-2---------------|-----------------|
A|-----------------|-----------------|-----------------|-----------------|
E|-----------------|-----------------|-----------------|-----------------|
e|-----------------|-----------------|-----------------|---------------0-|
B|-----------------|-----------------|-----------------|---------------0-|
G|-----------------|-----------------|-----------------|-----------------|
D|-----------------|-----------------|-----------------|-----------------|
A|-2-2-2-7-7-7-7-7-|---6-7-7-7-7-7-7-|-2-2-2-7-7-7-7-7-|---6-7-7-7-7-7---|
E|-0-0-0-5-5-5-5-5-|-7-----5-5-5-5-5-|-0-0-0-5-5-5-5-5-|-7-----5-5-5-5---|
I could tell she liked me from the way she stared (way she stared)
e|-----0-------0---|-----0-------0---|-----0-------0---|-----0-------0---|
B|---0---0---2---2-|---4---4---2---2-|---0---0---2---2-|---4---4---2---2-|
G|---------2-------|-4-------2-------|---------2-------|-4-------2-------|
D|-2---------------|-----------------|-2---------------|-----------------|
A|-----------------|-----------------|-----------------|-----------------|
E|-----------------|-----------------|-----------------|-----------------|
e|-----------------|-----------------|-----------------|-----------------|
B|-----------------|-----------------|-----------------|-----------------|
G|-----------------|-----------------|-----------------|-----------------|
D|-----------------|-----------------|-----------------|-----------------|
A|-2-2-2-7-7-7-7-7-|---6-7-7-7-7-7-7-|-2-2-2-7-7-7-7-7-|---6-7-7-7-7-7-7-|
E|-0-0-0-5-5-5-5-5-|-7-----5-5-5-5-5-|-0-0-0-5-5-5-5-5-|-7-----5-5-5-5-5-|
N the way she said Ya missed a spot over the-e-e-e-re (spot over there)

Prechorus

e|-----------------|-----------------|-----------------|-----------------|
B|-----------------|-----------------|-----------------|-----------------|
G|-----------------|-----------------|-----------------|-------------r---|
D|-2-2-2-2-2-2-2-2-|-7-7-7-7-7-7-7-7-|-2-2-2-2-2-2-2-2-|-7-7-7-7-7---e---|
A|-2-2-2-2-2-2-2-2-|-7-7-7-7-7-7-7-7-|-2-2-2-2-2-2-2-2-|-7-7-7-7-7---s---|
E|-0-0-0-0-0-0-0-0-|-5-5-5-5-5-5-5-5-|-0-0-0-0-0-0-0-0-|-5-5-5-5-5---t---|
And I know that you think its just But since your dad walked out your a fantasy mom could use a guy like me

Chorus

e|-0-0--0--0-0-0---|---------------|-0-0--0--0-0-0---|---------------|
B|-2-2--0--0-0-0-4-|-4-4-4---5--5--|-2-2--0--0-0-0-4-|-4-4-4---5--5--|
G|-2-2--1--1-1-1-4-|-4-4-4/6-6--6--|-2-2--1--1-1-1-4-|-4-4-4/6-6--6--|
D|-2-2--2--2-2-2-4-|-4-4-4---6--6--|-2-2--2--2-2-2-4-|-4-4-4---6--6--|
A|-0-0--2--2-2-2-2-|-2-2-2---4--4--|-0-0--2--2-2-2-2-|-2-2-2---4--4--|
E|------0--0-0-0---|---------------|------0--0-0-0---|---------------|
Stacy's mom has got it goin on, she's all I want and I've waited for so long
e|-0-0--0--0-0-0-0-|---------------|-----------------|---------------0-|
B|-2-2--0--0-0-0-0-|---------5--5--|-----------------|---------------0-|
G|-2-2--1--1-1-1-1-|-5-5-5---6--6--|-----------------|-----------------|
D|-2-2--2--2-2-2-2-|-4-4-4/6-6--6--|-7-7-7-7-7-7-7-7-|-9-9-9-9-9-9-9---|
A|-0-0--2--2-2-2-2-|-3-3-3---4--4--|-7-7-7-7-7-7-7-7-|-9-9-9-9-9-9-9---|
E|------0--0-0-0-0-|---------------|-5-5-5-5-5-5-5-5-|-7-7-7-7-7-7-7---|
Stacy can't you see you're just I know it might be wrong but not the girl for me, I'm in love with stacy's mom

Solo

Soloist

e|----------------|----------------|------------------|------------------|
B|----------------|----------------|------------------|------------------|
G|-5h7/9-7--------|----------------|-5-7-9-7----------|------------------|
D|----------9-5-7-|-7-7-7-5-9--7-5-|----------9-5-7/9-|-9/10\9/10\9/10\9-|
A|----------------|----------------|------------------|------------------|
E|----------------|----------------|------------------|------------------|
BACKGROUND
e|-----------------|---------0-----|---------------|----------------|
B|-----------------|---------0-----|---------------|----------------|
G|-5-5-----------7-|-7-7-7/9-9-----|-5-5---------4-|-4-4-4-4-4--4-4-|
D|-5-5--5--5-5-5-7-|-7-7-7/9-9-----|-5-5--5--5-5-4-|-4-4-4-4-4--4-4-|
A|-3-3--5--5-5-5-5-|-5-5-5/7-7-----|-3-3--5--5-5-2-|-2-2-2-2-2--2-2-|
E|------3--3-3-3---|---------0-----|------3--3-3---|----------------|

Soloist

e|----------------|----------------|
B|----------------|----------------|
G|-5h7/9-7--------|----------------|
D|----------9-5-7-|-7-7-7-5-9--7-5-|
A|----------------|----------------|
E|----------------|----------------|
e|------------------------------|---------------------------|
B|-4/5\/4\5/4\5/4\5/4\5/4\5/4/8-|-8/9\8/9\8/9\8/9\8/9\8/9\8-|
G|------------------------------|---------------------------|
D|------------------------------|---------------------------|
A|------------------------------|---------------------------|
E|------------------------------|---------------------------|
BACKGROUND
e|-----------------|---------0-----|-------------|-------------|
B|-----------------|---------0-----|-------------|-------------|
G|-5-5-----------7-|-7-7-7/9-9-----|-5--5--5--5--|-4--4--4--4--|
D|-5-5--5--5-5-5-7-|-7-7-7/9-9-----|-5--5--5--5--|-4--4--4--4--|
A|-3-3--5--5-5-5-5-|-5-5-5/7-7-----|-3--3--3--3--|-2--2--2--2--|
E|------3--3-3-3---|---------0-----|-------------|-------------|

Chorus

e|-0-0--0--0-0-0---|---------------|-0-0--0--0-0-0---|---------------|
B|-2-2--0--0-0-0-4-|-4-4-4---5--5--|-2-2--0--0-0-0-4-|-4-4-4---5--5--|
G|-2-2--1--1-1-1-4-|-4-4-4/6-6--6--|-2-2--1--1-1-1-4-|-4-4-4/6-6--6--|
D|-2-2--2--2-2-2-4-|-4-4-4---6--6--|-2-2--2--2-2-2-4-|-4-4-4---6--6--|
A|-0-0--2--2-2-2-2-|-2-2-2---4--4--|-0-0--2--2-2-2-2-|-2-2-2---4--4--|
E|------0--0-0-0---|---------------|------0--0-0-0---|---------------|
Stacy's mom has got it goin on, she's all I want and I've waited for so long
e|-0-0--0--0-0-0-0-|---------------|-----------------|-----------------|
B|-2-2--0--0-0-0-0-|---------5--5--|-----------------|-----------------|
G|-2-2--1--1-1-1-1-|-5-5-5---6--6--|-----------------|-----------------|
D|-2-2--2--2-2-2-2-|-4-4-4/6-6--6--|-7-7-7-7-7-7-7-7-|-9-9-9-9-9-9-9---|
A|-0-0--2--2-2-2-2-|-3-3-3---4--4--|-7-7-7-7-7-7-7-7-|-9-9-9-9-9-9-9---|
E|------0--0-0-0-0-|---------------|-5-5-5-5-5-5-5-5-|-7-7-7-7-7-7-7---|
Stacy can't you see you're just I know it might be wrong not the girl for me, but I'm in love with
e|-0-0--0--0-0-0---|---------------|-0-0--0--0-0-0---|---------------|
B|-2-2--0--0-0-0-4-|-4-4-4---5--5--|-2-2--0--0-0-0-4-|-4-4-4---5--5--|
G|-2-2--1--1-1-1-4-|-4-4-4/6-6--6--|-2-2--1--1-1-1-4-|-4-4-4/6-6--6--|
D|-2-2--2--2-2-2-4-|-4-4-4---6--6--|-2-2--2--2-2-2-4-|-4-4-4---6--6--|
A|-0-0--2--2-2-2-2-|-2-2-2---4--4--|-0-0--2--2-2-2-2-|-2-2-2---4--4--|
E|------0--0-0-0---|---------------|------0--0-0-0---|---------------|
Stacys mom (a-o-a-h) I'm In love with Stacys mom (a-o-a-oh)
e|-0-0--0--0-0-0-0-|---------------|-----------------|-----------------|
B|-2-2--0--0-0-0-0-|---------5--5--|-----------------|-----------7-----|
G|-2-2--1--1-1-1-1-|-5-5-5---6--6--|-----------------|-5-5-5-5-5-7-----|
D|-2-2--2--2-2-2-2-|-4-4-4/6-6--6--|-7-7-7-7-7-7-7-7-|-5-5-5-5-5-5-----|
A|-0-0--2--2-2-2-2-|-3-3-3---4--4--|-7-7-7-7-7-7-7-7-|-3-3-3-3-3-------|
E|------0--0-0-0-0-|---------------|-5-5-5-5-5-5-5-5-|-----------------|
Stacy can't you see you're just I know it might be wrong not the girl for me, but I'm in love with stacys mom / slide up / slide down B hammer * palm mute

Intro

Acoustic): A D C bass note Don't you wanna ride in my survival car

Dis

BmWe can take the long way Dhome AThrough Central Park AFunny how the ground can find my wheels I'm Dgoing where tD/Che road ain't Bmthere and only DRiding on theD/C path we Emade to Union ASquare Next Verse (same pattern): Doing what the young folks do in west coast towns Howling like a banshee through the overground Funny how the ground can find my wheels I'm going where the road won't tear And only riding on the path we made to Union Square Next part: FmEverybody hit the ground, I think I Amight have missed my calling FmEverbody turn around The light's about toD change, you better stand Bmaside Why you wanna Dwalk, don't you wanna rGide, ride, rDide, ride ADon't you wanna ride in my Dsuvival car D/C BmWe can take the long way Dhome

Solo

A D D/C Bm D

Last Verse: Funny how the ground can find my wheels I'm going where the road won't tear And only riding on the path we made to Union Square And only riding on the path we made... Riding on the path we made... Riding on the path we made to Union Square For the last part it's back to acoustic and you just pick the chords: Don't you wanna ride in my survival car, we can take the long way home EmThe King of Araby is coming home today EmIt's bumper touching bumper on the motorway The Gsun is in the Asky just Cnow But the Broad is Emgrey EmThey drive in Winnebagos from the Everglades EmPulled over by the troopers in the mirror shades The GCaravan is Asorry CThe driver has a Amtwenty Band change And we're Dleaving all the road for dead We're getting Amtired of the twists and turns You gotta Dgo when human nature calls We're Cdriving, we're Bdriving Through the Emvalley of malls EmAnd God forgive the passengers if we should fail EmTo find a penny fountain of a half-off sale I Gneed a Amerchant CI've just started Bsearching for a EmHoly Grail EmFighting for the freedom from a common bond EmTo be a barracuda in the guppy pond GSo little Atime for Cso many Amthings to Btry on Instrumental verse same chords And we're Dleaving all the road for dead We're getting Amtired of the twists and turns You gotta Dgo when human nature calls We're Cdriving, we're Bdriving Through the Emvalley of malls Through the Emvalley of malls ...... Em riff is an alternating 022000 020000 (em/em7) D riff is an altenating 200232 200230 (d/dsus2) Am riff is an alternating 002210 002010 (am/am7) This lead riff is played repeatedly between verses and at the intro and fadeout
E-----------------------------------------------
B-----------------------------------------------
G-----------------------------------------------
D---------------0--2--4--0-----0-----0----------
A--2-2-2-2-2-4--------------4-----4-----2-------
E-----------------------------------------------
Utopia Parkway Fountains Of Wayne

Submitted by soloist345

Well I?ve been saviBng for a custom van And I?ve been Dmplaying in a cover band And my bEaby doesn?t understand Why I neCver turned from boy to man I got it Bmade I gAot it doGwn I am Bthe king of tAhis islGand town I?m on myB own I?m Aon my Gway Down UCtopia, UEtopia Parkway
  B                                         A
E---------------13-----------------------------13-------------------|
B---11--13--11------11--13--11-----11--13--11-----11--13--11--------|
G-------------------------------------------------------------------|
D-------------------------------------------------------------------|
A-------------------------------------------------------------------|
E-------------------------------------------------------------------|

G

E---------------13------------------|
B---12--13--12------12?-12H13--12---|
G-----------------------------------|  x2
D-----------------------------------|
A-----------------------------------|
E-----------------------------------|
And while I?m Bwaiting for my time to come I?m gonna Dmget a little shopping done I?ll get some Epaper and a staple gun And put my Fname in front of everyone I got itB made AI got itG down I am theB king of thisA goddamn Gtown I?m on myB own IA?m on my wGay DCown Utopia, EUtopia Parkway
  B                                         A
E---------------13-----------------------------13-------------------|
B---11--13--11------11--13--11-----11--13--11-----11--13--11--------|
G-------------------------------------------------------------------|
D-------------------------------------------------------------------|
A-------------------------------------------------------------------|
E-------------------------------------------------------------------|

G

E---------------13------------------|
B---12--13--12------12?-12H13--12---|
G-----------------------------------|  x2
D-----------------------------------|
A-----------------------------------|
E-----------------------------------|
Gonna Clet my hair grow down my back Gonna bErace myself for the big attack And they?ll Bnever know whatD hit them when IE?m gone
  B                                         A
E---------------13-----------------------------13-------------------|
B---11--13--11------11--13--11-----11--13--11-----11--13--11--------|
G-------------------------------------------------------------------|
D-------------------------------------------------------------------|
A-------------------------------------------------------------------|
E-------------------------------------------------------------------|

G

E---------------13------------------|
B---12--13--12------12?-12H13--12---|
G-----------------------------------|  x4
D-----------------------------------|
A-----------------------------------|
E-----------------------------------|
Song: Valley Winter Song Artist: Fountains of Wayne Album: Welcome Interstate Managers Written by: Chris Collingwood and Adam Schlesinger

Intro

G - Bm - C Cadd9hC - C Cadd9hC (x4)

Cadd9 Bamm Cadd9 C

Em Hey sweet CAnnie, don't tGake it so bad D you know the summer's coming sA7oon though the Cinterstate is chDoking under sBmalt and dirty sCand and it sAmeems the sun is hiding from the mCoon G Your daddy tCold you when yDou were a gGirl the kBind of things that come to those who wCait so gCive it a rGest girl, tCake a deep brGeath girl and mAmeet me at the Bay State toCnight

Chorus

The snDow is coming down on Cour New England tGown and Dit's been falling all day lEmong Am whCat else is nDew?, wChat could I Emdo? I wrCote a valley winter song to plDay for yGou

G Bm C C

Em And late DeCcember, can dGrag a man down D you feel it deep in your gA7ut C short days and Dafternoons spent pBmottering around C in a dAmark house with the windows painted shCut G Remember NCew York stDaring outsGide B as wreckless winter made its wCay frCom Staten GIsland to the CUpper West SGide Amwhiting out our streets along the wCay

Chorus 2

The snDow is coming down on Cour New England tGown and Dit's been falling all day lEmong Am whCat else is nDew?, whCat can I Emdo? but sCing this valley winter song I wrDote for yGou Solo background chords: G C G G D D A7 A7 C D Bm C Am Am C C

Chorus 2

G Bm C C G

Strumming is all downstrokes. A, Bm, and G should all be barre cords. DIn about an hour AThe sunlight's gonna fade BmAnd you and me GWe'll divvy up the wine DLike everything else here G A Yours and Dmine DPickin up the paper ACoffee's been made BmIt's book review and face the nation Gtime DTwo in the same mind G A Yours and miDne

D A Bm G

D G A D

Congratulations! You read the whole thing! GO ORIGNAL AUTHORS! Wow I just wasted 30 min. of my life! I better go eat some tomatoes! EW!

All Content on this page is the property of the copyright owner of the original composition.