Four Letter Lie - Firecracker Text Guitar Tab

Learn song with the online tabulature player
-------------------------------------------------------------------------------
                             Firecracker solo - Four Letter Lie
-------------------------------------------------------------------------------
Tabbed by: Chris Savage
Email: cjsavage22@comcast.net

Tuning:Db Ab Db Gb Bb Eb

e|-------------------------------------12^--12^--10-----------------------------------|
B|-------8p5/------8p5--8/12------------------------12p10p8h10------------------------|
G|-----------------------------------------------------------------------------9------|
D|------------------------------------------------------------------------------------|
A|------------------------------------------------------------------------------------|
E|------------------------------------------------------------------------------------|

e|--15-12-10-12-15-10-12----------10-12------10-12-15-12-----------------------------|
B|------------------------------------/12-----------12-------------------------------|
G|-----------------------------------------------------------------------------------|
D|-----------------------------------------------------------------------------------|
A|-----------------------------------------------------------------------------------|
E|-----------------------------------------------------------------------------------|

e|-------10-12------10-12-15-12--------17^17^-17-------------------------------|
B|-/12-----------12------------------------------------------------------------|
G|-----------------------------------------------------------------------------|
D|-----------------------------------------------------------------------------|
A|-----------------------------------------------------------------------------|
E|-----------------------------------------------------------------------------|

e|---------------------------------------------------------------------------------|
B|---------------------------------------------------------------------------------|
G|---------------------------------------x-x---------------------------------------|
D|--/14\12-------------------------------x-x---------------------------------------|
A|------------12\10\7/10/12--10----------x-x-10/-----------------------------------|
E|---------------------------------------------------------------------------------|

| /  slide up
| \  slide down
| h  hammer-on
| p  pull-off
| ~  vibrato
| +  harmonic
| x  Mute note