Four Seasons - Beggin Text Guitar Tab

Learn song with the online tabulature player
-------------------------------------------------------------------------------
                  BEGGIN' - Frankie Valli & The Four Seasons                   
-------------------------------------------------------------------------------

Tabbed By : boomer60451

Tuning: Standard (EADG)


0:21
G|--7-5-------------------------------------|
D|------7--5--------------------------------|
A|-----------8-5~-----3-5~----3-5~----3-5~--|
E|------------------5-------5-------5-------|


0:29
G|---------------------------------------------------------|
D|------------------------------------------7---7---7------|
A|--5---5--5--7-8---8---8-10-8-7---7--7---7-------7---8-7--|
E|---------------------------------------------------------|x6


1:14
G|---------------------------------------------------------|
D|-------------------------------------------7--7---7------|
A|--5---5--7--8-10---10---8--8-7---7--7-10-7------7---8-7--|
E|---------------------------------------------------------|x2


1:29
G|---------------------------------------------------------|
D|------------------------------------------7---7---7------|
A|--5---5--5--7-8---8---8-10-8-7---7--7---7-------7---8-7--|
E|---------------------------------------------------------|x6


1:58
G|---------------------------------------------------------|
D|-------------------------------------------7--7---7------|
A|--5---5--7--8-10---10---8--8-7---7--7-10-7------7---8-7--|
E|---------------------------------------------------------|x2


2:13
G|-------------------------------|
D|-------------------------------|
A|--5~-----3-5~----3-5~----3-5~--|
E|-------5-------5-------5-------|

Break

2:24
G|---------------------------------------------------------|
D|------------------------------------------7---7---7------|
A|--5---5--5--7-8---8---8-10-8-7---7--7---7-------7---8-7--|
E|---------------------------------------------------------|Repeat till fade

===============================================================================