Foxboro Hot Tubs - Highway 1 Text Guitar Tab

Learn song with the online tabulature player
-------------------------------------------------------------------------------
                             HIGHWAY 1 - Foxboro Hot Tubs
-------------------------------------------------------------------------------
Tabbed by: Lewis Harrison (Evil-Sheep)
Email: bushsayswhatever@hotmail.com

Tuning: Standard (E A D G B e)

This is basically it, I don't know if the solo is exact but its the best I could do by ear, enjoy!

Verse:

e|---------------------------------------------------------------------------|
B|---------------------------------------------------------------------------|
G|-------7--9---------------7--9---------------------------------------------| x2
D|--999--7--9--7--9----999--7--9--7--9---------------------------------------|
A|--999--5--7--7--9----999--5--7--7--9---------------------------------------|
E|--777--------5--7----777--------5--7---------------------------------------|

Chorus:

e|---------------------------------------------------------------------------|
B|--999--7--999--7--999--7--999----------------------------------------------|
G|--999--7--999--7--999--7--999----------------------------------------------| 
D|--999--7--999--7--999--7--999---999--7--999--7--999--7--999----------------|
A|--777--5--777--5--777--5--777---999--7--999--7--999--7--999----------------|
E|--------------------------------777--5--777--5--777--5--777----------------|

e|---------------------------------------------------------------------------|
B|--999--7--999--7--999--7--999----------------------------------------------|
G|--999--7--999--7--999--7--999----------------------------------------------| 
D|--999--7--999--7--999--7--999----------------------------------------------|
A|--777--5--777--5--777--5--777----------------------------------------------|
E|---------------------------------------------------------------------------|

Bridge:

e|---------------------------------------------------------------------------|
B|--11------12-----14--------------------------------------------------------|
G|--11-x16--12-x8--14-x8-----------------------------------------------------|
D|--11------12-----14--------------------------------------------------------|
A|--9-------10-----12--------------------------------------------------------|
E|---------------------------------------------------------------------------|

Solo:

e|---------------------------------------------------------------------------|
B|--------------------------------------------------9-7----------------------|
G|--9b11-11-11-11--9b11-11-11-11--9b11-11-11-11b9---9-7----------------------|
D|------------------------------------------------------9-7-9----------------|
A|---------------------------------------------------------------------------|
E|---------------------------------------------------------------------------|

e|--------------------------10----10-12b14b12-10-----------------------------|
B|--7/10-10-10-10-11-11-12-----12----------------12--------------------------|
G|---------------------------------------------------------------------------|
D|---------------------------------------------------------------------------|
A|---------------------------------------------------------------------------|
E|---------------------------------------------------------------------------|

e|--------10----10-12b14b12-10-------12p10----10-----------------------------|
B|--12-12----12----------------12-12-------12----12--------------------------|
G|---------------------------------------------------------------------------|
D|---------------------------------------------------------------------------|
A|---------------------------------------------------------------------------|
E|---------------------------------------------------------------------------|


| /  slide up
| \  slide down
| h  hammer-on
| p  pull-off
| ~  vibrato
| +  harmonic
| x  Mute note
===============================================================================