Foxboro Hot Tubs - Sally Text Guitar Tab

Learn song with the online tabulature player
Song name: Sally
Artist: Foxboro Hot Tubs
Album: Stop Drop And Roll!!(2007)
Tuning: Standard (EADG)


Intro/verse
G---------------------------------|
D---------------------------------|
A--------------------0--0--0-3-3-3|         (x10)
E--0--0--0-3-3-3------------------|

Pre-chorus
G-------------------|
D-------------------|
A---2(x9)--0(x5)----|
E-------------------|


Chorus (x4)
G------------------------------------|
D------------------------------------|
A-------------------0-0-00-2-2-22----|
E--0-0-00-3-3-33---------------------|

Well i learned this by ear, so if there's any mistakes(In which there shouldn't be), 
hesitate to contact me on connormcfall96@hotmail.com

thanks :)