Foxy Shazam - Count Me Out Text Guitar Tab

Learn song with the online tabulature player
E|--------------------------------------14h15p14--12----------17--------------17--------------17-|
B|----------19----------17----------19----------------15--15------15--14--14------14--12--12-----|
G|-----------------------------------------------------------------------------------------------|
D|-----------------------------------------------------------------------------------------------|
A|--17--17---------------------------------------------------------------------------------------|
E|--------------17--17------15--15---------------------------------------------------------------|

E|--------------17------|
B|--12--14--14------14--|
G|----------------------|
D|----------------------|
A|----------------------|
E|----------------------|