Foxy Shazam - Killin It Text Guitar Tab

Learn song with the online tabulature player
G|--------------------------------------------------|
D|--------------------------------------------------|
A|-----------------7777777777777777-3333333333333333|
E|3333333333333333----------------------------------|
                                                      }X2
G|--------------------------------------------------|
D|--------------------------------------------------|
A|2222222222222222----------------------------------|
E|--------------------------------------------------|

G|--------------------------------------------------|
D|--------------------------------------------------|
A|-----------------7777777777777777-3333333333333333|
E|3333333333333333----------------------------------|

G|--------------------------------------------------|
D|--------------------------------------------------|
A|5555555555555555----------------------------------|
E|--------------------------------------------------|

G|--------------------------------------------------|
D|--------------------------------------------------|
A|77777777-2-2-22-77777777-5------------------------|
E|--------------------------------------------------|

G|------------------7---7---7---7---9---9---9---9---|
D|--5---5---5---5-----------------------------------|
A|----------------5---5---5---5---7---7---7---7-----|
E|3---3---3---3-------------------------------------|
                                                     }X4
G|--------------------------------------------------|
D|--------------------------------------------------|
A|3-3-33--------------------------------------------|
E|--------------------------------------------------|

G|--------------------------------------------------|
D|--------------------------------------------------|
A|-----------------7777777777777777-3333333333333333|
E|3333333333333333----------------------------------|
                                                     
G|--------------------------------------------------|
D|--------------------------------------------------|
A|2222222222222222----------------------------------|
E|--------------------------------------------------|

G|--------------------------------------------------|
D|--------------------------------------------------|
A|-----------------7777777777777777-3333333333333333|
E|3333333333333333----------------------------------|

G|--------------------------------------------------|
D|--------------------------------------------------|
A|5555555555555555----------------------------------|
E|--------------------------------------------------|

G|--------------------------------------------------|
D|--------------------------------------------------|
A|77777777-2-2-22-77777777-5------------------------|
E|--------------------------------------------------|

G|------------------7---7---7---7---9---9---9---9---|
D|--5---5---5---5-----------------------------------|
A|----------------5---5---5---5---7---7---7---7-----|
E|3---3---3---3-------------------------------------|
                                                     }x3
G|--------------------------------------------------|
D|--------------------------------------------------|
A|3-3-33--------------------------------------------|
E|--------------------------------------------------|

G|------------------7---7---7---7---9---9---9---9---|
D|--5---5---5---5-----------------------------------|
A|----------------5---5---5---5---7---7---7---7-----|
E|3---3---3---3-------------------------------------|
                                                     
G|--------------------------------------------------|
D|--------------------------------------------------|
A|3-3-3-3-3-3-3-3-----------------------------------|
E|--------------------------------------------------|

G|--------------------------------------------------|
D|--------------------------------------------------|
A|7x24-2x24-----------------------------------------|
E|--------------------------------------------------|X4

G|--------------------------------------------------|
D|--------------------------------------------------|
A|33333-33333-22222-22222-33333-33333-3-3-3-3-3-3-3-|
E|--------------------------------------------------|

G|------------------7---7---7---7---9---9---9---9---|
D|--5---5---5---5-----------------------------------|
A|----------------5---5---5---5---7---7---7---7-----|
E|3---3---3---3-------------------------------------|
                                                     }x4
G|--------------------------------------------------|
D|--------------------------------------------------|
A|3-3-33--------------------------------------------|
E|--------------------------------------------------|

G|--------------------------------------------------|
D|--------------------------------------------------|
A|7x32-2--------------------------------------------|
E|--------------------------------------------------|

Not sure if this is all correct or not.I just had a 
look at the chords and listened to the song and came 
up with this. Oh, also had a look at a cover on Youtube
which helped too,so some credit to that person :)I 
apologise in advance if it's wrong haha Sounds alright 
to me though :)