Francis Rossi - I Dont Know Text Guitar Tab

Learn song with the online tabulature player
I Don't Know
Francis Rossi
KOTD 1996



  Intro/Chorus Vocal Melody
E|-----------------------------------------|
B|-----12-15/17-------12-14-------12-14-12-|
G|-/13------------/13---------/13----------|
D|-----------------------------------------|
A|-----------------------------------------|
E|-----------------------------------------|


  Solo after modulation
E|-----------------------------------15b17-15b17-14b15-11b12-------------|
B|-----13-16/18-------13-15-------13-------------------------15-13-13\15-|
G|-\14------------\14---------\14----------------------------------------|
D|-----------------------------------------------------------------------|
A|-----------------------------------------------------------------------|
E|-----------------------------------------------------------------------|

E|----------------------------------------------------------------|
B|-----13-16/18-------13-15-15-15--15b17-rb15-13------13----15/17-|
G|-\14------------\14-----------------------------\14----14-------|
D|----------------------------------------------------------------|
A|----------------------------------------------------------------|
E|----------------------------------------------------------------|