Francisco Tarrega - Adelita Text Guitar Tab

Learn the song with the online tablature player
Adelita- Francisco Tarrega (1852-1909)

p = pulgar = thumb
i = indice = index
m = medio = middle
a = anular = ring

Part A
[1]                             VII........................

G|---------------------9------|---------------------9------|
D|----------------------------|---------------------10-----|
A|----------------------------|-0--------------------------|
E|-0--------------------------|----------------------------|

R  a        a          m        a         m         m
   p                   i        p                   i

L  4   3    1          2        4    2    1         3
                       3                            4

[3]
  VII.........................
E|-8-h--7---------------------|----------------0---------7-|
B|---------------------8------|-7h8p7-----0---------8------|
G|-----------8---------8------|------9---------------------|
D|---------------------7------|----------------------------|
A|----------------------------|----------------------------|
E|-7--------------------------|-0--------------------------|

R  a         i         m        m    i    m    a    m    a
   p                   i        p
L  2    1    2         3        1 2 13              2    1
                       2
                       1

[5]                             VII.........................

G|---------------------9------|---------------------9------|
D|----------------------------|---------------------10-----|
A|----------------------------|-0--------------------------|
E|-0--------------------------|----------------------------|

R  a        a          m        a         m         m
   p                   i        p                   i

L  4   3    1          2        4    2    1         3
                       3                            4

[7]
   VII........................
E|-8-h--7---------------------|---------------------------||
B|---------------------8------|-5-------------------------||
G|-----------8---------8------|-4------------------------*||
D|---------------------7------|-5------------------------*||
A|----------------------------|---------------------------||
E|-7--------------------------|-----------0---------------||

R  a         i         m        m         p
   p                   i        i
                       p        p
L  2    1    2         3        3
   1                   2        1
                       1        2

Part B
[9]
   IV.......................................................

E|-4---------------7----------|-4----------------7---------|
B|-----------5---------5----7-|-----------5---------5----7-|
G|-----------4---------6------|-----------4---------6------|
D|-----------6----------------|-----------6----------------|
A|---------------------0------|---------------------0------|

R  a         m     a   m    m   a         m     a   m    m
   p         i         i        p         i         i
             p         p                  p         p

L  1         2     4   2    4   1         2     4   2    4
             1         1                  1         1
             3                            3

[11]
  .....         * IX..........  VII.......................
E|-4---7-/12--11--11h12p11--9-|-9h11p9--7------------------|
B|-5--------------------------|-----------10---7-----------|
A|----------------9-----------|----------------------------|

R  a   a      a   m         m   a       a  m   i    i    p
   m              i             m
   i              p             i
   p                            p
L  1   4      3   3  4  3   1   3 4 3   1  4   1    2    3
   2              1             2
   1              1             1
                                1

[13]
                                             VII...........
E|--------0------------0------|----------------------------|
B|--------0------------2------|----------------------------|
G|----------------------------|-1-4/13-13--8-9h11p9--------|
D|-6-------------9-----2----4-|--------------8-----------8-|
A|---------------------0------|----------------------------|
E|-0--------------------------|-0------------8-------------|

R  i      a      i     a    i   m m     m  m m           i
   p      m            m        p            i
                       i                     p
                       p
L  1             4     3    4   1 4 4  4   2 2 4 2       1
                       1                     1
                                             1

[15]
                       II.....
E|----------------------------|-0-------------------------||
B|-0-------2--0--------4------|-0-------------------------||
G|---------2--1--------2------|-1------------------------*||
D|---------------------4------|-2------------------------*||
A|-2-------------------2------|---------------------------||
E|----------------------------|-----------0---------------||

R  m       m  m        a        a         p
   p       i  i        m        m
                       i        i
                       p        p
L  2       3  1        4        1
           1           1        3
                       3
                       1