Franz Ferdinand - Cant Stop Feeling Text Guitar Tab

Learn song with the online tabulature player
Song: Can't Stop Feeling
Band: Franz Ferdinand
Album: Tonight

INTRO:

both guitars:

e|--------------------------------|
B|--------------------------------|
G|--------------------------------| 
D|--------------------------------|  x3
A|----7-7-7---7-7-5-3---2---3-----|
E|5-------------------------------|

then: can easily be played on one guitar as well 
            
gtr. 1:
e|--------------------------------|
B|--------------------------------|
G|--------------------------------|
D|--------------------------------|
A|----7-7-7---7-----7-101010--10--|
E|--5-----------------------------|
    
gtr. 2:                  
e|--------------------------------|
B|--------------------------------|
G|--------------------------------|
D|--------------------------------|
A|----7-7-7---7-----7-------------|
E|--5-----------------7-7-7---7---|

VERSE: 

guitar part: (0:38)

don't let the open strings ring

  +   1  2 + 3   4   1   2   3   4 + 1   2 + 3   4   1   2   3   4   
e|--|----------------------------------------------------------------|
B|--|----x-5-----------------------------x-5-------------------------|
G|--|----x-5-----------------------------x-5-------------------------|
D|0-|----x-5-----------------------0-----x---------------------------|
A|0-|----x-------------------------0-3-------------------------------|
E|0-|-5----------------------------0---------------------------------|

  1  2 + 3   4   1   2   3   4   1   2   3   4   1   2   3   4     
e|---------------------------------------------------------------|
B|---x-5---------------------------------------------------------|
G|---x-5---------------------------------------------------------|
D|---x-5---------------------------------------------------------|
A|---x-----------------------------------------------------------|
E|5--------------------------------------------------------------|


  1  2 + 3   4 + 1   2 + 3   4 + 1   2   3   4 + 1   2   3   4     
e|---------------------------------------------------------------|
B|---x-5-------------x-5-------------x-5-------------------------|
G|---x-5-------------x-5-------------x-5-------------------------|
D|---x-5-------------x---------------x---------------------------|
A|---x---------0-5---x---------5-3---x---------5-7---7---7---7---|
E|5--------------------------------------------------------------|

- Intro Riff first part x2

then: 1:06

sixteenth notes harmonics on the D string are played - some pauses in between

e|---------------------------|
B|---------------------------|
G|---------------------------|
D|7*7*7*7*---7*7*7*--7*7*7*7*|
A|---------------------------|
E|---------------------------|

^^ a bit like this so that you get the picture

listen to the song for proper timing or just improvise

  1  2 + 3   4 + 1   2 + 3 + 4 + 1   2 + 3   4 + 1   2   3   4     
e|---------------------------------------------------------------|
B|---x-5-------------x-5---0---------x-5-------------x-9---------|
G|---x-5-------------x-5---4---------x-5-------------x-9---------|
D|---x-5-------------x---------------x-5-------------x-9---------|
A|---x---------7-5---x---------5-3---x---------5-7---x-----------|
E|5------------0-------------------------------------------------|

  1  2 + 3   4 + 1   2 + 3 + 4 + 1   2 + 3   4 + 1   2   3   4     
e|---------------------------------------------------------------|
B|---x-5-------------x-5-------------x-5-------------x-9---------|
G|---x-5-------------x-5-------------x-5-------------x-9---------|
D|---x-5-------------x---------------x-5-------------x-9---------|
A|---x---------3/5---x---------5-3---x---------5-7---x-----------|
E|5--------------------------------------------------------------|

  1  2 + 3   4 + 1   2 + 3 + 4 + 1   2 + 3   4 + 1   2   3   4     
e|---------------------------------------------------------------|
B|---x-5-------------x-5-------------x-5-------------x-----------|
G|---x-5-------------x-5-------------x-5-------------x-----------|
D|---x-5-------------x---------------x-5-------------x-----------|
A|---x---------7-5---x---------5-3---x---------5/7---x-7-x-7-x---|
E|5--------------------------------------------------------------|

- Intro Riff part 1 x2

BRIDGE:

Am               F                          G               E
   So boy you're down and alone and you're soul is broken again

        F                         Dm                  E              
But you can't stop moving, no you won't stop moving along

- complete Intro Riff 

OUTRO:

no proper guitar riff really works with the same chords used in most parts of the song

E7 can be used instead of E if you prefer that

Am Dm C E(7)