Fray - Heaven Forbid Text Guitar Tab

Learn song with the online tabulature player
-------------------------------------------------------------------------------
                             Heaven Forbid - The Fray
-------------------------------------------------------------------------------
Tabbed by: Nick Fearby
Email: Fearb11@yahoo.com

Tuning: EADGBE

I looked all over the internet for this and couldn't find it, so i just did it myself.

(Intro/Verses)
e|--------------|
B|--4--4--4--4--|
G|--4--4--4--4--|
D|--6--4--4--6--|
A|--6--6--4--4--|
E|--------------|

(back-round riff)
e|--7--6-------------------|
B|--------7--4-------------|
G|-------------6-6-6-6/8-8-|
D|-------------------------|
A|-------------------------|
E|-------------------------|

(Chorus)
e|--4--2--x--0--|
B|--5--2--7--0--|
G|--6--3--8--1--|
D|--6--4--9--2--|
A|--4--4--9--2--|
E|--x--2--7--0--|

(Bridge)
e|--4--2--4-|
B|--5--2--4-|
G|--6--3--4-|
D|--6--4--6-|
A|--4--4--6-|
E|--x--2--4-|


| /  Slide
| x  Mute note
===============================================================================