Frei Will Ich - Copilot Text Guitar Tab

Learn song with the online tabulature player
-------------------------------------------------------------------------------
                            Copilot - Frei Will Ich || www.frei-willich.de
-------------------------------------------------------------------------------
************************************
| \   slide down
| h   hammer-on
| p   pull-off
************************************

Tuning: normal

Vers
G|---------------------------------------7p9---9--9p7-----|
D|-\10---\12--10-9---9h10p9----7---7---7-----7--------7-9-|
A|--------------------------10----------------------------|
E|--------------------------------------------------------|

G|------------------------------------------5-------------|
D|-\10---\12--10-9---9h10p9----7---7---5h7----7-5---5-5-7-|
A|--------------------------10--------------------7-------|
E|--------------------------------------------------------|

G|---------------------------------------7p9---9--9p7-----|
D|-\10---\12--10-9---9h10p9----7---7---7-----7--------7-9-|
A|--------------------------10----------------------------|
E|--------------------------------------------------------|

G|---------------------------------------7p9-9-7p9h7------|
D|-\10---\12--10-9---9h10p9----7---7---7-------------10-7-|
A|--------------------------10----------------------------|
E|--------------------------------------------------------|

Bridge  
G|-----------------------|
D|----5h7-7-7-5h7-5------|
A|-------------------7-5-|
E|-----------------------|

Refrain
G|----------|------10----10-|-------------------------|
D|-----7--7-|---------10----|-----10------------------|
A|-0-0---0--|-\8-8----------|----------10----------7--|
E|----------|---------------|-8-8----8----7--7-8--8-8-|