Friendly Fires - White Diamonds Text Guitar Tab

Learn song with the online tabulature player
----------------------------------------------------------------------------
			     Friendly Fires - White Diamonds
----------------------------------------------------------------------------

Tabbed By : Angry Pirate

Tuning: Standard


Verse - Sounds better if slapped

G|------------------8----8------------|
D|----------6///-10---10--------------|
A|------------------------------------|
E|--4-4-4-4-----------------4-4-4-4---|


Bridge - "She'd do anything for you"

G|-------------------------------------|
D|-------------------------------------|
A|---4---4---4---4---4---4---4---4---4-|
E|-2---2---2---2---2---2---2---2---2---|


Chorus
G|--------------------------------------------------------------------|
D|---------------------------------4/-9-7h9-7h9-7h9-7h9-7h9-7h9-7h9-7-|
A|-4-2h4-2h4-2h4-2h4-2h4-2h4-2h4-2------------------------------------|
E|--------------------------------------------------------------------|

G|------------------------------------------------------------------|
D|---------------------------------7-6h7-6h7-6h7-6h7-6h7-6h7-6h7-6--|
A|-9-7h9-7h9-7h9-7h9-7h9-7h9-7h9-7----------------------------------|
E|------------------------------------------------------------------|


Brilliant Song, Brilliant Band - Enjoy