Frio - Alive Text Guitar Tab

Learn song with the online tabulature player
alive
frio
kinapa ni: Lawrence Asis Gayundato
tuning nito standard................

intro:
sabay po ang lead at rythm.....pakitymingan lng po.....

lead guitar
  F#		  C#/F            E               B
e-14--14--14--14--18--18--18--18--14--14--14--14--16--16--18--18----|
b---14--14--14--14--14--14--14--14--14--14--14--14--14--14--14--14--|
g-------------------------------------------------------------------|
d-------------------------------------------------------------------|
a-------------------------------------------------------------------|
e-------------------------------------------------------------------|
rythm guitar
  F#		  C#/F            E               B
e-2---------------x---------------0---------------2------------------|
b-2---------------6---------------0---------------4------------------|
g-3---------------6---------------1---------------4------------------|
d-4---------------3---------------2---------------4------------------|
a-4---------------4---------------2---------------2------------------|
e-2---------------x---------------0---------------x------------------|
verse
      Tomorrow never comes The day will end today.......
   G#m                    B                      F#          lead part
e---4---------------------2----------------------2--------------------------|
b---4---------------------4----------------------2-----------16-(14h16)x8---|
g---4---------------------4----------------------3--------------------------|
d---6---------------------4----------------------4--------------------------|
a---6---------------------2----------------------4--------------------------|
e---4---------------------x----------------------2--------------------------|
refrain
         I"ll never be a man  So take it as i am.......
   G#m                       E
e---4------------------------0---------------------------------------------|
b---4------------------------0---------------------------------------------|
g---4------------------------1---------------------------------------------|
d---6------------------------2---------------------------------------------|
a---6------------------------2---------------------------------------------|
e---4------------------------0---------------------------------------------|
chorus
    Make me alive... Make me suffer... Make me feel...
  		  F#		  C#/F            E               B
e-----------------2---------------x---------------0---------------2--------|
b-----------------2---------------6---------------0---------------4--------|
g-----------------3---------------6---------------1---------------4--------|
d-----------------4---------------3---------------2---------------4--------|
a-----------------4---------------4---------------2---------------2--------|
e-----------------2---------------x---------------0---------------x--------|             
                               repeat verse
repeat refrain
rpeat chorus
adlib
bridge
rythm guitar
  F#		  C#/F            E               B
e-2---------------x---------------0---------------2------------------------|
b-2---------------6---------------0---------------4------------------------|
g-3---------------6---------------1---------------4------------------------|
d-4---------------3---------------2---------------4------------------------|
a-4---------------4---------------2---------------2------------------------|
e-2---------------x---------------0---------------x------------------------|             
            			        lead guitar
e--------------------------------------------------------------------------|
b-2/14-14-14-11-2/14-14-14-11-2/14-14-14-11--------------------------------|
g------------------------------------------9h9h9h9-------------------------|


e------------------------------------------14/21h21------------------------|
b-2/14-14-14-11-2/14-14-14-11-2/14-14-14-11--------------------------------|
g--------------------------------------------------------------------------|

repeat refrain
repeat chorus x2