Frio - Hiling Text Guitar Tab

Learn song with the online tabulature player
band/artist:frio
song title: hiling

hi! im jowel basister from wesleyan bible college of kabacan cotabato mindanao. psnsya 
kayo sa tabs ko kc 1st tme kng gumawa ng tabs...kaya hindi pa masydng mgnda.


Intro:
plckng yan...
e-------0---------0---2h4-0-------0-------------------------------]
B---2-4---------0---0-----------0---0------------5----4-----------]
G------------2----------------4-------4-----------------4---4-----]
D--------------------------------------------4s6----------4-------]
A---------0--------------------------------4----------2-----------]
E----------------------------4-----------2------------------------]

e-------0---------0---2h4-0-------0-------4-5-4-2-----------------]
B---2-4---------0---0-----------0---0-----5-5-5-0--5---------5-4--]
G------------2----------------4-------4---------------4-----4--4--]
D-------------------------------------------------------4--4---4--]
A---------0----------------------------------------2------2-------]
E----------------------------4------------------------------------]

sana mgsthn nyo tbs ko................