From Autumn to Ashes - Eulgy For An Angel Text Guitar Tab

Learn song with the online tabulature player
Intro

------------------------------------------------------|
------------------------------------------------------|
------------------------------------------------------|
-----2h4-----2h4----2h4-------4-----4-4h5h4-----------|
-----------------------------5-----5---------5--------|
--00------00-----00-------00-----00-------------------|

------------------------------------------------------|
------------------------------------------------------|
------------------------------------------------------|
-------2------2--------------4-----4------------------|
------3-----3-------3-------5-----5-------------------|
--00------00------00------00----00-----005------------|