Frou Frou - Breathe In Text Guitar Tab

Learn song with the online tabulature player
-------------------------------------------------------------------------------
			     FROU FROU - BREATHE IN
-------------------------------------------------------------------------------

Tabbed By : Charlie Sabine
E-mail: charlie_sabine@hotmail.com

Tuning: Standard - EADG

The whole entire song has the same bass line, it stops a couple of times, but you'll be 
to see when by just listening to the song.

-----------------------------------------------|
-----------------------------------------------|
-----------7--------------------7--------------|
--5-5--5-5----5-5h7----5-5--5-5----5-5h7-------|


-----------------------------------------------|
-----------------------------------------------|
-----------2-------------------2---------------|
--0-0--0-0----0-0h2---0-0--0-0----0-0h2--------|

Simple.