Fuel - Leave The Memories Alone Text Guitar Tab

Learn song with the online tabulature player
This in my opinion is one of the best tracks on their new CD so i decided to give it a try
and tab it out. these are basically just the power chords so feel free to add to it.
tabbed by: Vincent Brauer
Tuning: Standard

Verse:
(Strumming- you can hear strum pattern pretty easily)
e|--5---5-3---|
B|--5---5-3---|
G|--7---6-4---|(Repeat 3 more times)
D|--7---7-5---|
A|--5---7-5---|
E|------5-3---|

Pre-Chorus:
e|--5---7---3---3---|
B|--5---7---3---3---|
G|--6---8---5---4---|
D|--7---5---5---5---|
A|--7---5---3---5---|
E|--5---7-------3---|


Chorus(Same as verse):

e|--5---5-3---|
B|--5---5-3---|
G|--7---6-4---|(Repeat 3 more times)
D|--7---7-5---|
A|--5---7-5---|
E|------5-3---|

Bridge:

e|--7----5----3-----|
B|--7----5----3-----|
G|--8----6----4-----|
D|--9----7----5-----|(play twice then go into chorus until end of song)
A|--9----7----5-----|
E|--7----5----3-----|

Thats all i got- i know its not compete but its somethin- any questions or suggestions 
me at singvisionblurred@yahoo.com