Fun Lovin Criminals - Scooby Snacks Chords

Main Riff
Main Riff
 
No chord
    
Standard guitar tuning:
E
A
D
G
B
E
No capo

Intro

with vibrato)
e|-----------|
b|-3-------3-|
g|-2-------2-|
d|-0-------0-|
a|-0-------0-|
e|-----------|
Intro/Chorus
e|-------------------------------|
b|-3---3-------------------------|
g|-2---2-2---2-2---5---5---------|
d|-0---0-2---2-2---5---5-5---5-5-|  Reapeat 4 times
a|-------0---0-0---3---3-5---5-5-|
e|-----------------------3---3-3-|

Verse

with vibrato)
e|----------|
b|-3----6-5-|
g|-2----5-4-|  Repeat ? times
d|-0--------|
a|----------|
e|----------|

All Content on this page is the property of the copyright owner of the original composition.