Funeral Party - Giant Text Guitar Tab

Learn song with the online tabulature player
Intro
Slide part (x2)
G|---------------------------------------------------------------------------|
D|---------------------------------------------------------------------------|
A|-8-8-88\--8-8-88\--10-10-1010\--10-10-1010\--------------------------------|
E|---------------------------------------------------------------------------|

Chorus
G|---------------------------------------------------------------------------|
D|---------------------------------------------------------------------------|
A|-33333333---------------------------33333333-------------------------------|
E|---------00000000-3333333333333333----------00000000-3333333033305553------|


Verse (x2)

G|---------------------------------------------------------------------------|
D|---------------------------------------------------------------------------|
A|-5--5--5-5--7-----------------7--7--7--7--7-5--5---------------------------|
E|-------------5--5--35-35--0--3-------------------3--3----------------------|

Slide part (x2)
G|---------------------------------------------------------------------------|
D|---------------------------------------------------------------------------|
A|-8-8-88\--8-8-88\--10-10-1010\--10-10-1010\--------------------------------|
E|---------------------------------------------------------------------------|


Chorus
G|---------------------------------------------------------------------------|
D|---------------------------------------------------------------------------|
A|-33333333--------------------------33333333--------------------------------|
E|---------00000000-3333333300335533---------00000000-3333333300005533-------|

G|---------------------------------------------------------------------------|
D|---------------------------------------------------------------------------|
A|-33333333---------------------------33333333-------------------------------|
E|----------00000000-3333333033305553----------00000000-3333333033305553-----|


Slide Part 2
G|-------------------------------------------------------------------------------|
D|-------------------------------------------------------------------------------|
A|---3/10----3\10----3/10----3/10-----3/10-----3/10-----3/10-----3/10--10--10----|
E|-0------0-------0-------0--------0--------0--------0--------0------------------|


Verse (x4)
G|---------------------------------------------------------------------------|
D|---------------------------------------------------------------------------|
A|-5--5--5-5--7-----------------7--7--7--7--7-5--5---------------------------|
E|-------------5--5--35-35--0--3-------------------3--3----------------------|

Bridge (x2)
G|-------------------------------------------------------------------------------------|
D|-------------------------------------------------------------------------------------|
A|-8~--7~---10~--10~----8~--7~--10~--10~-----------------------------------------------|
E|-------------------------------------------------------------------------------------|

(x4)
G|---------------------------------------------------------------------------|
D|---------------------------------------------------------------------------|
A|-8-8-8-8--7-7-7-7--10-10-10-10--10-10-10-10--------------------------------|
E|---------------------------------------------------------------------------|

Chorus
G|---------------------------------------------------------------------------|
D|---------------------------------------------------------------------------|
A|-33333333--------------------------33333333--------------------------------|
E|---------00000000-3333333300335533---------00000000-3333333300005533-------|

G|---------------------------------------------------------------------------|
D|---------------------------------------------------------------------------|
A|-33333333---------------------------33333333-------------------------------|
E|----------00000000-3333333033305553----------00000000-3333333033305553-----|