Further Seems Forever - Bye Bye Bye Text Guitar Tab

Learn song with the online tabulature player
Artist- Further Seems Forever 
Song-   Bye Bye Bye

Let Me Know What You Think.
                                                             
F#||------------------|------------------|------------------|
C#||------------------|------------------|------------------|
G#||------------------|------------------|------------------|
C#||------------------|------------------|------------------|


                                                                            
---------------------|--------------------------|--------------------------|
---------------------|--------------------------|--------------------------|
---------------------|--0-0-0-0-0-0-0-0---------|--0-0-0-0-0-0-0-0---------|
--2--2------5--------|--------------------------|--------------------------|


                                                      
--------------------------|--------------------------|
--------------------------|--------------------------|
--0-0-0-0-0-0-0-0---------|--0-0-0-0-0-0-0-0---------|
--------------------------|--------------------------|


                                                            
-----------------------------|-----------------------------|
-----------------------------|-----------------------------|
--0-0--0-0--0-0--0-0--0-0--0-|--0--0-0--0-0--0-0--0-0--0-0-|
-----------------------------|-----------------------------|


                                                    
----------------------------|----------------------|
----------------------------|----------------------|
---0-0--0-0--0-0--0-0--0-0--|----------------------|
----------------------------|--0----2----3----5/---|


                                                            
-----------------------------|-----------------------------|
-----------------------------|-----------------------------|
--0-0--0-0--0-0--0-0--0-0--0-|--0--0-0--0-0--0-0--0-0--0-0-|
-----------------------------|-----------------------------|


                                                                               
----------------------------|----------------------|------------------------|
----------------------------|----------------------|------------------------|
---0-0--0-0--0-0--0-0--0-0--|----------------------|------------------------|
----------------------------|--0----2----3----5/---|-3--3--3--3--3--3--3--3-|


                                                                            
--------------------------|--------------------------|---------------------|
--------------------------|--------------------------|---------------------|
--------------------------|--------------------------|---------------------|
--5--5--5--5--5--5--5--5--|--3--3--3--3--3--3--3--3--|--2--2--2------------|


                                                                      
----------------------------------|----------------------------------|
----------------------------------|----------------------------------|
--0-0-0-0-0-0-0-0-0-0-0-0-0-0-0-0-|----------------------------------|
----------------------------------|--5-5-5-5-5-5-5-5-5-5-5-5-5-5-5-5-|


                                                              
----------------------------------|--------------------------|
----------------------------------|--------------------------|
----------------------------------|--------------------------|
--3-3-3-3-3-3-3-3-3-3-3-3-3-3-3-3-|--2--2--2--2--5--5--5--5--|


                                                                      
----------------------------------|----------------------------------|
----------------------------------|----------------------------------|
--0-0-0-0-0-0-0-0-0-0-0-0-0-0-0-0-|----------------------------------|
----------------------------------|--5-5-5-5-5-5-5-5-5-5-5-5-5-5-5-5-|


                                                           
----------------------------------|-----------------------|
----------------------------------|-----------------------|
----------------------------------|-----------------------|
--3-3-3-3-3-3-3-3-3-3-3-3-3-3-3-3-|--2--2--2--------2/-9/-|


                                                   
----------------------------|---------------------|
----------------------------|---------------------|
--0-0--0-0--0-0-----5-4-3-2-|--0--0--0------------|
----------------------------|---------------------|


                                                            
-----------------------------|-----------------------------|
-----------------------------|-----------------------------|
--0-0--0-0--0-0--0-0--0-0--0-|--0--0-0--0-0--0-0--0-0--0-0-|
-----------------------------|-----------------------------|


                                                   
----------------------------|---------------------|
----------------------------|---------------------|
---0-0--0-0--0-0--0-0--0-0--|---------------------|
----------------------------|--0----2----3--------|


                                                            
-----------------------------|-----------------------------|
-----------------------------|-----------------------------|
--0-0--0-0--0-0--0-0--0-0--0-|--0--0-0--0-0--0-0--0-0--0-0-|
-----------------------------|-----------------------------|


                                                                               
----------------------------|----------------------|------------------------|
----------------------------|----------------------|------------------------|
---0-0--0-0--0-0--0-0--0-0--|----------------------|------------------------|
----------------------------|--0----2----3----5/---|-3--3--3--3--3--3--3--3-|


                                                                            
--------------------------|--------------------------|---------------------|
--------------------------|--------------------------|---------------------|
--------------------------|--------------------------|---------------------|
--5--5--5--5--5--5--5--5--|--3--3--3--3--3--3--3--3--|--2--2--2------------|


                                                                      
----------------------------------|----------------------------------|
----------------------------------|----------------------------------|
--0-0-0-0-0-0-0-0-0-0-0-0-0-0-0-0-|----------------------------------|
----------------------------------|--5-5-5-5-5-5-5-5-5-5-5-5-5-5-5-5-|


                                                              
----------------------------------|--------------------------|
----------------------------------|--------------------------|
----------------------------------|--------------------------|
--3-3-3-3-3-3-3-3-3-3-3-3-3-3-3-3-|--2--2--2--2--5--5--5--5--|


                                                                      
----------------------------------|----------------------------------|
----------------------------------|----------------------------------|
--0-0-0-0-0-0-0-0-0-0-0-0-0-0-0-0-|----------------------------------|
----------------------------------|--5-5-5-5-5-5-5-5-5-5-5-5-5-5-5-5-|


                                                         
----------------------------------|---------------------|
----------------------------------|---------------------|
----------------------------------|---------------------|
--3-3-3-3-3-3-3-3-3-3-3-3-3-3-3-3-|--2--2--2------------|


                                                      
--------------------------|--------------------------|
--------------------------|--------------------------|
--0---0-0---0-0---0-0---0-|--0---0-0---0-0---0-0---0-|
--------------------------|--------------------------|


                                                                          
--------------------------|--------------------------|-------------------|
--------------------------|--------------------------|-------------------|
--0---0-0---0-0---0-0---0-|--0---0-0---0-0---0-0---0-|--0----------------|
--------------------------|--------------------------|-------------------|


                                                               
-------------------|-------------------|----------------------|
-------------------|-------------------|----------------------|
-------------------|-------------------|----------------------|
--5----------------|--3----------------|--0----2----3----5----|


                                                                      
----------------------------------|----------------------------------|
----------------------------------|----------------------------------|
--0-0-0-0-0-0-0-0-0-0-0-0-0-0-0-0-|----------------------------------|
----------------------------------|--5-5-5-5-5-5-5-5-5-5-5-5-5-5-5-5-|


                                                                      
----------------------------------|----------------------------------|
----------------------------------|--0-0-0-0-0-0-0-0-----------------|
----------------------------------|----------------------------------|
--3-3-3-3-3-3-3-3-3-3-3-3-3-3-3-3-|------------------2-2-2-2-2-2-2-2-|


                                                                      
----------------------------------|----------------------------------|
----------------------------------|----------------------------------|
--0-0-0-0-0-0-0-0-0-0-0-0-0-0-0-0-|----------------------------------|
----------------------------------|--5-5-5-5-5-5-5-5-5-5-5-5-5-5-5-5-|


                                                              
----------------------------------|--------------------------|
----------------------------------|--------------------------|
----------------------------------|--------------------------|
--3-3-3-3-3-3-3-3-3-3-3-3-3-3-3-3-|--2--2--2--2--5--5--5--5--|


                                                                      
----------------------------------|----------------------------------|
----------------------------------|----------------------------------|
--0-0-0-0-0-0-0-0-0-0-0-0-0-0-0-0-|--2-2-2-2-2-2-2-2-2-2-2-2-2-2-2-2-|
----------------------------------|----------------------------------|


                                                                              
----------------------------------|----------------------|-----------------||
----------------------------------|----------------------|-----------------||
----------------------------------|-------------------0--|--0--------------||
--3-3-3-3-3-3-3-3-3-3-3-3-3-3-3-3-|--2--2--2-------------|-----------------||