Future Of Forestry - Speak To Me Gently Text Guitar Tab

Learn the song with the online tablature player
VERSE 1
e|-------------------------------------------------|\
B|-------------------------------------------------| \
G|-------------------------------------------------|  \
D|---0---0---0---0---0---0---0---0---0---0---0---0-|   \
A|-------------------------------------------------|    \
E|-0---0---0---0---0---0---7---7---7---7---7---7---|     \
                                                           play 3x
e|-------------------------------------------------|     /
B|-------------------------------------------------|    /
G|-------------------------------------------------|   /
D|---0---0---0---0---0-------0---0---0---0---0---0-|  /
A|-2---2---2---2---2---2p0-------------------------| /
E|-------------------------5---5---5---5---5---5---|/

Sadness and rhyme
These are the times
These are the memories
We find a way
Pushing through the day
So speak to me gently

CHORUS
e|-------------------------------------------------|
B|-------------------------------------------------|
G|-------------------------------------------------|
D|---0---0---0---0---0---0---4---4---4---4---4---4-|
A|-2---2---2---4---4---4---5---5---5---5---5---5---|
E|-------------------------------------------------|

e|-------------------------------------------|
B|-------------------------------------------|
G|-----0----0----2----2----------------------|
D|---0----0----0----0---------4h5---7--5p4-5-|
A|-2----2----4----4-------4h5-----5----------|
E|----------------------0--------------------|

e|-------------------------------------------------|
B|-------------------------------------------------|
G|-----4-----4-----6-----6-----7-----7-----9-----9-|
D|-------------------------------------------------|
A|---5-----5-----7-----7-----9-----9-----7-----7---|
E|-5-----5-----7-----7-----9-----9-----7-----7-----|

e|-------------------------------------------------|
B|-------------------------------------------------|
G|-----7-----7-----7-----7-----7-----7-----7-----7-|
D|-------------------------------------------------|
A|---5-----5-----5-----5-----5-----5-----5-----5---|
E|-5-----5-----5-----5-----5-----5-----5-----5-----|

Can you just feel the time
Falling from some place new?
Can you just feel the sign?
Love waits for you
Love waits for you

VERSE 2
e|-------------------------------------------------|\
B|-------------------------------------------------| \
G|-------------------------------------------------|  \
D|---0---0---0---0---0---0---0---0---0---0---0---0-|   \
A|-------------------------------------------------|    \
E|-0---0---0---0---0---0---7---7---7---7---7---7---|     \
                                                           play 3x
e|-------------------------------------------------|     /
B|-------------------------------------------------|    /
G|-------------------------------------------------|   /
D|---0---0---0---0---0-------0---0---0---0---0---0-|  /
A|-2---2---2---2---2---2p0-------------------------| /
E|-------------------------5---5---5---5---5---5---|/

I'm searching the stars
In desperate hours
Bound to find meaning
God shows a face
In this desolate place
And tenderness meets me

CHORUS
e|-------------------------------------------------|
B|-------------------------------------------------|
G|-------------------------------------------------|
D|---0---0---0---0---0---0---4---4---4---4---4---4-|
A|-2---2---2---4---4---4---5---5---5---5---5---5---|
E|-------------------------------------------------|

e|-------------------------------------------|
B|-------------------------------------------|
G|-----0----0----2----2----------------------|
D|---0----0----0----0---------4h5---7--5p4-5-|
A|-2----2----4----4-------4h5-----5----------|
E|----------------------0--------------------|

e|-------------------------------------------------|
B|-------------------------------------------------|
G|-----4-----4-----6-----6-----7-----7-----9-----9-|
D|-------------------------------------------------|
A|---5-----5-----7-----7-----9-----9-----7-----7---|
E|-5-----5-----7-----7-----9-----9-----7-----7-----|

e|-------------------------------------------------|
B|-------------------------------------------------|
G|-----7-----7-----7-----7-----7-----7-----7-----7-|
D|-------------------------------------------------|
A|---5-----5-----5-----5-----5-----5-----5-----5---|
E|-5-----5-----5-----5-----5-----5-----5-----5-----|

Can you just feel the time
Falling from some place new?
Can you just feel the sign?
Love waits for you
Love waits for you

SOLO
e|-------------------------------------------------|
B|-------------------------------------------------|
G|-9h11---11---11---11---11p9---9---9--7--6--------|  A: Solo
D|-------------------------------------------------|
A|-------------------------------------------------|
E|-------------------------------------------------|

e|-------------------------------------------------|
B|-------------------------------------------------|
G|-------------------------------------------------|  B: Rhythym
D|---0---0---0---0---0---0---0---0---0---0---0---0-|
A|-------------------------------------------------|
E|-0---0---0---0---0---0---7---7---7---7---7---7---|

e|-------------------------------------------------|
B|-------------------------------------------------|
G|-6h7-----7----7----6----6h7---7---7---7----------|  A
D|-------------------------------------------------|
A|-------------------------------------------------|
E|-------------------------------------------------|

e|-------------------------------------------------|
B|-------------------------------------------------|
G|-------------------------------------------------|  B
D|---0---0---0---0---0-------0---0---0---0---0---0-|
A|-2---2---2---2---2---2p0-------------------------|
E|-------------------------5---5---5---5---5---5---|

e|-------------------------------------------------|
B|------------------10-----------------------------|
G|-9h11---11---11--------11p9---9---9--7--6--------|  A
D|-------------------------------------------------|
A|-------------------------------------------------|
E|-------------------------------------------------|

e|-------------------------------------------------|
B|-------------------------------------------------|
G|-------------------------------------------------|  B
D|---0---0---0---0---0---0---0---0---0---0---0---0-|
A|-------------------------------------------------|
E|-0---0---0---0---0---0---7---7---7---7---7---7---|

e|-------------------------------------------------|
B|-6h7---7---7---6---6---6---6---6---7---7---7-----|
G|-------------------------------------------------|  A
D|-------------------------------------------------|
A|-------------------------------------------------|
E|-------------------------------------------------|

e|-------------------------------------------------|
B|-------------------------------------------------|
G|-------------------------------------------------|  B
D|---0---0---0---0---0-------0---0---0---0---0---0-|
A|-2---2---2---2---2---2p0-------------------------|
E|-------------------------5---5---5---5---5---5---|

VERSE 3
e|-------------------------------------------------|\
B|-------------------------------------------------| \
G|-------------------------------------------------|  \
D|---0---0---0---0---0---0---0---0---0---0---0---0-|   \
A|-------------------------------------------------|    \
E|-0---0---0---0---0---0---7---7---7---7---7---7---|     \
                                                           play 3x
e|-------------------------------------------------|     /
B|-------------------------------------------------|    /
G|-------------------------------------------------|   /
D|---0---0---0---0---0-------0---0---0---0---0---0-|  /
A|-2---2---2---2---2---2p0-------------------------| /
E|-------------------------5---5---5---5---5---5---|/

Stories untold
Of redwoods grown old
Reside in the forest
And there you can hear
A whispering tear
That speaks into our loneliness

CHORUS
e|-------------------------------------------------|
B|-------------------------------------------------|
G|-------------------------------------------------|
D|---0---0---0---0---0---0---4---4---4---4---4---4-|
A|-2---2---2---4---4---4---5---5---5---5---5---5---|
E|-------------------------------------------------|

e|-------------------------------------------|
B|-------------------------------------------|
G|-----0----0----2----2----------------------|
D|---0----0----0----0---------4h5---7--5p4-5-|
A|-2----2----4----4-------4h5-----5----------|
E|----------------------0--------------------|

e|-------------------------------------------------|
B|-------------------------------------------------|
G|-----4-----4-----6-----6-----7-----7-----9-----9-|
D|-------------------------------------------------|
A|---5-----5-----7-----7-----9-----9-----7-----7---|
E|-5-----5-----7-----7-----9-----9-----7-----7-----|

e|-------------------------------------------------|
B|-------------------------------------------------|
G|-----7-----7-----7-----7-----7-----7-----7-----7-|
D|-------------------------------------------------|
A|---5-----5-----5-----5-----5-----5-----5-----5---|
E|-5-----5-----5-----5-----5-----5-----5-----5-----|

Can you just feel the time
Falling from some place new?
Can you just feel the sign?
Love waits for you
Love waits for you

CHORUS
e|----------------------------------------------|
B|----------------------------------------------|
G|-----0----0----2----2-------------------------|
D|---0----0----0----0-----4---4---4---4---4---4-|
A|-2----2----4----4-----5---5---5---5---5---5---|
E|----------------------------------------------|

e|-------------------------------------------|
B|-------------------------------------------|
G|-----0----0----2----2----------------------|
D|---0----0----0----0---------4h5---7--5p4-5-|
A|-2----2----4----4-------4h5-----5----------|
E|----------------------0--------------------|

e|-------------------------------------------------|
B|-------------------------------------------------|
G|-----4-----4-----6-----6-----7-----7-----9-----9-|
D|-------------------------------------------------|
A|---5-----5-----7-----7-----9-----9-----7-----7---|
E|-5-----5-----7-----7-----9-----9-----7-----7-----|

e|-------------------------------------------------|
B|-------------------------------------------------|
G|-----7-----7-----7-----7-----7-----7-----7-----7-|
D|-------------------------------------------------|
A|---5-----5-----5-----5-----5-----5-----5-----5---|
E|-5-----5-----5-----5-----5-----5-----5-----5-----|

Can you just feel the time
Falling from some place new?
Can you just feel the sign?
Love waits for you
Love waits for you

OUTRO
e|-------------------------------------------------|\
B|-------------------------------------------------| \
G|-------------------------------------------------|  \
D|---0---0---0---0---0---0---0---0---0---0---0---0-|   \
A|-------------------------------------------------|    \
E|-0---0---0---0---0---0---7---7---7---7---7---7---|     \
                                                           play 2x
e|-------------------------------------------------|     /
B|-------------------------------------------------|    /
G|-------------------------------------------------|   /
D|---0---0---0---0---0-------0---0---0---0---0---0-|  /
A|-2---2---2---2---2---2p0-------------------------| /
E|-------------------------5---5---5---5---5---5---|/