Futureheads - The Beginning Of The Twist Text Guitar Tab

Learn song with the online tabulature player
Redone some of it so give it a ganders and rate away (:


|-------------------------------------------------------------------|
|-------------------------------------------------------------------|
|----------15--------------15------13------15--------------17-------|
|--15----------13--15----------13--------------13--15----------15---|


|-------------------------------------------------------------|
|-------------------------------------------------------------|
|----------3333------------3333----111111113333---------------|
|--33333333----111133333333----1111------------111133333333---|


|------------|
|------------|
|--555-------|
|------333---|


|-------------------------------------------------------------|
|-------------------------------------------------------------|
|----------3333------------3333----111111113333---------------|
|--33333333----111133333333----1111------------111133333333---|


|------------|
|------------|
|--555-------|
|------333---|


|-------------------------------------------------------------|
|-------------------------------------------------------------|
|----------3333------------3333----111111113333---------------|
|--33333333----111133333333----1111------------111133333333---|


|------------|
|------------|
|--555-------|
|------333---|


|-------------------------------------|
|-------------------------------------|
|--------------5555----55553333-------|
|--333333331111----6666--------5555---|  x4


|------------|
|------------|
|--555-------|
|------333---|


|-------------------------------------------------------------|
|-------------------------------------------------------------|
|----------3333------------3333----111111113333---------------|
|--33333333----111133333333----1111------------111133333333---|


|------------|
|------------|
|--555-------|
|------333---|


|-------------------------------------------------------------|
|-------------------------------------------------------------|
|----------3333------------3333----111111113333---------------|
|--33333333----111133333333----1111------------111133333333---|


|------------|
|------------|
|--555-------|
|------333---|


|-------------------------------------|
|-------------------------------------|
|--------------5555----55553333-------|
|--333333331111----6666--------5555---|  x4


|--------------------------------------------------------------------|
|--------------------------------------------------------------------|
|----------15--------------15------13------15------------------------|
|--15----------13--15----------13--------------13--15------13---10---|


(No bass)

|-------------------------------------|
|-------------------------------------|
|------------------13------15---------|
|--15------13-------------------------|   x2



|-------------------------------------|
|-------------------------------------|
|--------------5555----55553333-------|
|--333333331111----6666--------5555---|  x4


|-------------------------------------------------------------------|
|-------------------------------------------------------------------|
|----------15--------------15------13------15--------------17-------|
|--15----------13--15----------13--------------13--15----------15---|