G Love And Special Sauce - Free At Last Text Guitar Tab

Learn song with the online tabulature player
This is the main chord progression through out the song ill let you guys figure out the strum pattern


----7----4----7----5----|
----7----4----7----5----|
----9----6----7----5----|
----9----6----9----7----|
----7----4----9----7----|
----x----x----7----5----|


When he says "free at last" in the chorus this is the lead bit over the top of the chords

-------------------------------------|
-------------------------------------|
----5h7-5b--5h7-5b--5h7-5b--5h7-5----|
-------------------------------------|
-------------------------------------|
-------------------------------------|
Please rate everyone koz this is my first tab and i wanna see wot you guys think of it