G Love And Special Sauce - Love Text Guitar Tab

Learn song with the online tabulature player
Love - G. Love & Special Sauce

This is the one off the old 1999 record "Philadelphonic" that
i think a lot of you are looking for whilst looking at the
tabs people have posted for "Love" off the album "The Hustle"

Tuning - standard

Capo on second fret

|----4-x--2---------------------------------|
|----4-x--4-x-4h6---6-------4---------6-----|
|----4-x--4-x-4h6---6---------4---------6---|
|--6-6-x--4-x-4h6---6---2h4-----4---------6-|
|--6-6-x--2-x-4---------2---------2/4-------|
|--4---x------------------------------------|

Remember to tap the body of you guitar on the mutes to get that rad sound
That riff is played throughout along with this little solo (with capo on 2nd still)

|------------------------------------------|
|------------------------------------------|
|--------6-8-6---6-------------------------|
|----6-8-------8-----8-----6-6h8-----6-6h8-|
|-/8---------------------8---------8-------|
|------------------------------------------|

and that is pretty much it minus a heap of harmonica solos

hope this was in some way helpful

Storz