G Love And Special Sauce - Milk And Sugar Text Guitar Tab

Learn song with the online tabulature player
G.Love Fixin to Die Milk and Sugar, Peace Love! Climey

Intro Riff
E-----------------------------|
B--1--------------------------|
G-----2--0--------0-----------|
D-----------1--2-----2--0-----|
A---------------------------3-|
E-----------------------------|
 The three on the A string goes into a Cmaj7

Chords are from what I think also the last chord below the F major I
think he plays the second time around and make sure you thumb the bass notes or pluck 
them first it sounds better and probally is the proper way

E--x------x------x---------1-------|
B- 1------3------6-- or----1-------|
G--3------5------8---or----2-------|
D--2------4------7---or----3-------|
A--3------5------8---or----x-------|
E--x------x------x---------x-------|


 Riff 2 slide from any fret on the E string to 5th fret and hammer on 4 to 5 like 3 or 4 
times or somethin then to back to the beginning riff
E----\-5---------------|
B----4-5-4-5-4-5-4-5---|
G----------------------|
D----------------------|
A----------------------|
E----------------------|