Gabriella And Troy - I Gotta Go My Own Way Text Guitar Tab

Learn song with the online tabulature player
Hey I love this song sooo much i wanted to learn the intro to it
and there was no tabs for it soooo...
I decided to make it up myself it might not be right but it sounds right to me ^^

By the way if it doesnt sound right to you guys then
it wouldn't suprise me considering this is my second tab lmao


Capo on 2nd fret

Intro

E------------------------------------------------------------------|
B----------3------------3-----------------3-------------3----------|
G------------0------------0----------------0--------------0--------|
D-------0-------------0---------0------0--------------0------------|
A---0h2-----------2h3---------3---3p2-----------2p0----------------|
E------------------------------------------------------------------|


E---------------------------------------------------------------------------------|
B-------------------3--------------3----------------------------3-----3-----------|
G---------------------0--------------0-----------------------0--------2-----------|
D----0-----------0----------------0-----------0-0-------0-------------0-----------|
A--0---0-----0h2--------------2h3--------------3----------------------------------|
E---------------------------------------------------------------------------------|