Gabriella Cilmi - I Dont Want To Go To Bed Now Text Guitar Tab

Learn song with the online tabulature player
This is pretty much the main riff for most of the song.

------------------|------------------|------------------|------------------|
------------------|------------------|------------------|------------------|
------------------|------------------|------------------|------------------|
------------------|------------------|------------------|------------------|
------------------|------------------|------------------|------------------|
-4--6-6--4-4--6-6-|-4--6-6--4-4--6-6-|-4--6-6--4-4--6-6-|-4--6-6--4-4--1-1-|

You can also strum it using power chords

------------------|------------------|------------------|------------------|
------------------|------------------|------------------|------------------|
------------------|------------------|------------------|------------------|
-6--8-8--6-6--8-8-|-6--8-8--6-6--8-8-|-6--8-8--6-6--8-8-|-6--8-8--6-6--3-3-|
-6--8-8--6-6--8-8-|-6--8-8--6-6--8-8-|-6--8-8--6-6--8-8-|-6--8-8--6-6--3-3-|
-4--6-6--4-4--6-6-|-4--6-6--4-4--6-6-|-4--6-6--4-4--6-6-|-4--6-6--4-4--1-1-|