Gabrielle - Out Of Reach Text Guitar Tab

Learn the song with the online tablature player
Artist: Gabrielle

Song title: Out Of Reach

Intro
G|----------------------------------------|
D|----------------------------------------|
F|-6----6-6-------------------------------|
C|----68----6-8--4-6-88-8-6--2-4-66-64~---|

Verse 1
G|-------------------------------------------|
D|-------------------------------------------|
F|-6---6-6-----------------------------------|
C|---68-----6-8--4-6-88-8-6--2-4-66-64-0-2-44| X2

Chores:
G|---------------------------|
D|-------------/2~-----------|
F|-3~----/8~-----------1~----|
C|---------------------------|

G|-------------------------------------------|
D|-------------------------------------------|
F|-6---6-6-----------------------------------|
C|---68-----6-8--4-6-88-8-6--2-4-66-64-0-2-44| X2

Verse 2
G|-------------------------------------------|
D|-------------------------------------------|
F|-6---6-6-----------------------------------|
C|---68-----6-8--4-6-88-8-6--2-4-66-64-0-2-44| X2

Chores:
G|---------------------------|
D|-------------/2~-----------|
F|-3~----/8~-----------1~----|
C|---------------------------|

G|-------------------------------------------|
D|-------------------------------------------|
F|-6---6-6-----------------------------------|
C|---68-----6-8--4-6-88-8-6--2-4-66-64-0-2-44| X2

Verse 3
G|-------------------------------------------|
D|-------------------------------------------|
F|-6---6-6-----------------------------------|
C|---68-----6-8--4-6-88-8-6--2-4-66-64-0-2-44| X2

Chores:
G|---------------------------|
D|--------------2~-----------|
F|-3~------------------------|
C|--------1~-----------------|

G|-------------------------------------------|
D|-------------------------------------------|
F|-6---6-6-----------------------------------|
C|---68-----6-8--4-6-88-8-6--2-4-66-64-0-2-44| X2

G|-------------------------------------------|
D|-------------------------------------------|
F|-6---6-6-----------------------------------|
C|---68-----6-8--4-6-88-8-6~-------4~------0~|

And there it ends