Gang Of Four - Anthrax Text Guitar Tab

Learn song with the online tabulature player
Gang of Four
Anthrax
----------------------|
----------------------|
--4-55---------4-55---|
-------5-5-(5)------5-|

----------------------|
----------------------|
--4-55---------4-55---|
-------5-5-(5)------5-|

----------------------|
----------------------|
--4-55---------4-55---|
-------5-5-(5)------5-|