Gary Allan - Kiss Me When Im Down Text Guitar Tab

Learn the song with the online tablature player
Garry Allan - Kiss Me When Im Down

{C*} e|-------|o  {F*} e|-------|o
     B|-1-----|        B|-1-----|
     G|-------|o       G|-------|o
     D|-------|o       D|----3--|
     A|----3--|        A|-------|x
     E|-------|x       E|-------|

Intro
C  G  Dm  F x2

OR

e|-8---8---7---7---8---8---8---8---8---8---7---7---8---8---8~|
B|---8---8---8---8---6---6---6---6---8---8---8---8---6---6---|
G|-----------------------------------------------------------|
D|-----------------------------------------------------------|
A|-----------------------------------------------------------|
E|-----------------------------------------------------------|

Verse
 C
It's been a year since last weekend
 c*
When you swung by with an old friend
 Dm                            F
Carried out our future box by box
C
a stack of mail the tube of toothepaste
c*
an empty Zeppelin three-CD case
 Dm                                F
Still a few things here that you forgot

Pre-chorus
         Am     G     F
They're just a bad excuse...
        Am     G      F
Just something I can use... to call you

Chorus
  C      G      Dm      F
Come on over, drink my wine
 C           G      Dm      F
Waste my candles, waste my time
 C       G      Dm      F
Tell me lies I won't believe,
 C           G      Dm        F
just don't wake me when you leave

 Am      G      F      F       Dm
Come on over, kick me to the ground...

and kiss me when I'm down

C  G  Dm  F x2

OR

e|-8---8---7---7---8---8---8---8---8~|
B|---8---8---8---8---6---6---6---6---|
G|-----------------------------------|
D|-----------------------------------|
A|-----------------------------------|
E|-----------------------------------|

Verse
  C
The bar you're in sounds like it's crowded
  C
people laughing people shouting,
  Dm                            F
where you gonna go at closing time?

Pre-chorus
 Am   G        F
Just pay your tab
Am        G        F
And I'll pay your cab... If you want to

Chorus
 C       G      Dm      F
Come on over, drink my wine
  C          G      Dm      F
Waste my candles, waste my time
 C       G      Dm      F
Tell me lies I won't believe,
 C          G       Dm        F
just don't wake me when you leave

 Am      G      F     F        Dm
Come on over, kick me to the ground...

and kiss me when I'm down

Solo
 C  G  Dm  F x2

Pre-chorus
 Am      G       F
Just an hour or two...
     Am         G       F
Is better than none of you...
I miss you

Chorus
  C      G      Dm      F
Come on over, drink my wine
 C           G      Dm      F
Waste my candles, waste my time
 C       G      Dm      F
Tell me lies I won't believe,
 C           G      Dm        F
just don't wake me when you leave

Outro

 Am      G      F     F        Dm
Come on over, kick me to the ground...
                       C  G  Dm  F
and kiss me when I'm down
                      C  G  Dm  F
Oh kiss me when I'm down