Gary Go - Open Arms Text Guitar Tab

Learn song with the online tabulature player
Whatever happened to truth
G|------------------------------------------------------------------------------|
D|------------------------------------------------------------------------------|
A|------------------------------------------------------------------------------|
E|--------------------------3---------------------------------------------------|

Lost without a trace
G|------------------------------------------------------------------------------|
D|------------------------------------------------------------------------------|
A|------------------------------------------------------------------------------|
E|--------------------------5---------------------------------------------------|

Whatever happened to the mirror
G|------------------------------------------------------------------------------|
D|------------------------------------------------------------------------------|
A|------------------------------------------------------------------------------|
E|--------------------------3---------------------------------------------------|

That showed me a happy face
G|------------------------------------------------------------------------------|
D|------------------------------------------------------------------------------|
A|------------------------------------------------------------------------------|
E|---------------------------3--------------------------------------------------|

Whatever happened to sorry
G|------------------------------------------------------------------------------|
D|------------------------------------------------------------------------------|
A|------------------------------------------------------------------------------|
E|----------------------------3-------------------------------------------------|

You know it’s never too late
G|------------------------------------------------------------------------------|
D|------------------------------------------------------------------------------|
A|------------------------------------------------------------------------------|
E|----------------------------5-------------------------------------------------|

Whatever happened to good things coming
G|------------------------------------------------------------------------------|
D|------------------------------------------------------------------------------|
A|------------------------------------3-----------------------------------------|
E|------------------------------------------------------------------------------|

Coming to those who wait
G|------------------------------------------------------------------------------|
D|------------------------------------------------------------------------------|
A|------------------------------------------------------------------------------|
E|3-----------------------------------------------------------------------------|

Whatever happened to this city
G|------------------------------------------------------------------------------|
D|------------------------------------------------------------------------------|
A|-----------------------------7------------------------------------------------|
E|------------------------------------------------------------------------------|

It’s not like it used to be
G|------------------------------------------------------------------------------|
D|------------------------------------------------------------------------------|
A|-----------------------------3------------------------------------------------|
E|------------------------------------------------------------------------------|

Whatever happened to you
G|------------------------------------------------------------------------------|
D|------------------------------------------------------------------------------|
E|----------------------------3-------------------------------------------------|

Whatever happened to me
G|------------------------------------------------------------------------------|
D|------------------------------------------------------------------------------|
A|----------------------------5-------------------------------------------------|
E|------------------------------------------------------------------------------|

Chorus:
Gotta look myself in the eye
G|---------------------------------------------------------------------------|
D|---------------------------------------------------------------------------|
A|---------------------------------------------------------------------------|
E|----1-1-1-1-1-1-1-1--5-5-5-5-5-5-5-5---------------------------------------|

And say it’s gonna be alright
G|---------------------------------------------------------------------------|
D|---------------------------------------------------------------------------|
A|--3-3-3-3-3-3-3-3-3--7-7-7-7-7-7-7-----------------------------------------|
E|---------------------------------------------------------------------------|

Maybe everything won’t be alright
G|---------------------------------------------------------------------------|
D|---------------------------------------------------------------------------|
A|---------------------------------------------------------------------------|
E|--1-1-1-1-1-1-1-1-5-5-5-5-5-5-5-5------------------------------------------|

All the time
G|---------------------------------------------------------------------------------|
D|---------------------------------------------------------------------------------|
A|--3-3-3-3-3----------------------------------------------------------------------|
E|-------------3-3-3-3-------------------------------------------------------------|

I’ve gotta take these chances where they are
G|------------------------------------------------------------------------------|
D|------------------------------------------------------------------------------|
A|------------------------------------------------------------------------------|
E|--1-1-1-1----5-5-5-5----------------------------------------------------------|

It’s gonna be alright
G|---------------------------------------------------------------------------------|
D|---------------------------------------------------------------------------------|
A|-3-3-3-3-------------------------------------------------------------------------|
E|---------1-1-1-1-----------------------------------------------------------------|

I’ve gotta see things for what they are
G|---------------------------------------------------------------------------------|
D|---------------------------------------------------------------------------------|
A|--5-5-5-5------------------------------------------------------------------------|
E|-------------5-5-5-5-------------------------------------------------------------|

At the time
G|------------------------------------------------------------------------------|
D|------------------------------------------------------------------------------|
A|--3---------------------------------------------------------------------------|
E|------------------------------------------------------------------------------|

Verse 2
Lost with no place to begin
G|-------------------------------------------------------------------------------|
D|-------------------------------------------------------------------------------|
A|-------------------------------------------------------------------------------|
E|---3----------------5----------------------------------------------------------|

I’ll slowly adjust to the sun to just face I’m in
G|------------------------------------------------------------------------------|
D|------------------------------------------------------------------------------|
A|---------------------3--------------------------------------------------------|
E|------------------------------------------------------------------------------|

Whatever Happened to the List
G|------------------------------------------------------------------------------|
D|------------------------------------------------------------------------------|
A|---------------------7--------------------------------------------------------|
E|------------------------------------------------------------------------------|

of things I wanted to be
G|------------------------------------------------------------------------------|
D|------------------------------------------------------------------------------|
A|-----------------------3------------------------------------------------------|
E|------------------------------------------------------------------------------|

Whatever happened to you
G|------------------------------------------------------------------------------|
D|------------------------------------------------------------------------------|
A|------------------------------------------------------------------------------|
E|----------------------3-------------------------------------------------------|

Whatever Happened to me
G|------------------------------------------------------------------------------|
D|------------------------------------------------------------------------------|
A|----------------------5-------------------------------------------------------|
E|------------------------------------------------------------------------------|


Chorus:
Gotta look myself in the eye
G|---------------------------------------------------------------------------|
D|---------------------------------------------------------------------------|
A|---------------------------------------------------------------------------|
E|----1-1-1-1-1-1-1-1--5-5-5-5-5-5-5-5---------------------------------------|

And say it’s gonna be alright
G|---------------------------------------------------------------------------|
D|---------------------------------------------------------------------------|
A|--3-3-3-3-3-3-3-3-3--7-7-7-7-7-7-7-----------------------------------------|
E|---------------------------------------------------------------------------|

Maybe everything won’t be alright
G|---------------------------------------------------------------------------|
D|---------------------------------------------------------------------------|
A|---------------------------------------------------------------------------|
E|--1-1-1-1-1-1-1-1-5-5-5-5-5-5-5-5------------------------------------------|

All the time
G|---------------------------------------------------------------------------------|
D|---------------------------------------------------------------------------------|
A|--3-3-3-3-3----------------------------------------------------------------------|
E|-------------3-3-3-3-------------------------------------------------------------|

I’ve gotta take these chances where they are
G|------------------------------------------------------------------------------|
D|------------------------------------------------------------------------------|
A|------------------------------------------------------------------------------|
E|--1-1-1-1----5-5-5-5----------------------------------------------------------|

It’s gonna be alright
G|---------------------------------------------------------------------------------|
D|---------------------------------------------------------------------------------|
A|-3-3-3-3-------------------------------------------------------------------------|
E|---------1-1-1-1-----------------------------------------------------------------|

I’ve gotta see things for what they are
G|---------------------------------------------------------------------------------|
D|---------------------------------------------------------------------------------|
A|--5-5-5-5------------------------------------------------------------------------|
E|-------------5-5-5-5-------------------------------------------------------------|

At the time
G|------------------------------------------------------------------------------|
D|------------------------------------------------------------------------------|
A|--3---------------------------------------------------------------------------|
E|------------------------------------------------------------------------------|

Bridge:
Yeah the words are on the seam
G|------------------------------------------------------------------------------|
D|------------------------------------------------------------------------------|
A|-5----------------------------------------------------------------------------|
E|------------------------------------------------------------------------------|

Ready to receive
G|------------------------------------------------------------------------------|
D|------------------------------------------------------------------------------|
A|------------------------------------------------------------------------------|
E|-1----------------------------------------------------------------------------|

I’m the ocean you’re the stream
G|------------------------------------------------------------------------------|
D|------------------------------------------------------------------------------|
A|-5----------------------------------------------------------------------------|
E|------------------------------------------------------------------------------|

Ready to receive
G|------------------------------------------------------------------------------|
D|------------------------------------------------------------------------------|
A|------------------------------------------------------------------------------|
E|-1----------------------------------------------------------------------------|

It’s like open arms to me
G|------------------------------------------------------------------------------|
D|------------------------------------------------------------------------------|
A|------------------------------------------------------------------------------|
E|-5----------------------------------------------------------------------------|

Ready to, ready to receive
G|------------------------------------------------------------------------------|
D|------------------------------------------------------------------------------|
A|---------------------3--------------------------------------------------------|
E|-3----------------------------------------------------------------------------|

Chorus:
Gotta look myself in the eye
G|---------------------------------------------------------------------------|
D|---------------------------------------------------------------------------|
A|---------------------------------------------------------------------------|
E|----1-1-1-1-1-1-1-1--5-5-5-5-5-5-5-5---------------------------------------|

And say it’s gonna be alright
G|---------------------------------------------------------------------------|
D|---------------------------------------------------------------------------|
A|--3-3-3-3-3-3-3-3-3--7-7-7-7-7-7-7-----------------------------------------|
E|---------------------------------------------------------------------------|

Maybe everything won’t be alright
G|---------------------------------------------------------------------------|
D|---------------------------------------------------------------------------|
A|---------------------------------------------------------------------------|
E|--1-1-1-1-1-1-1-1-5-5-5-5-5-5-5-5------------------------------------------|

All the time
G|---------------------------------------------------------------------------------|
D|---------------------------------------------------------------------------------|
A|--3-3-3-3-3----------------------------------------------------------------------|
E|-------------3-3-3-3-------------------------------------------------------------|

I’ve gotta take these chances where they are
G|------------------------------------------------------------------------------|
D|------------------------------------------------------------------------------|
A|------------------------------------------------------------------------------|
E|--1-1-1-1----5-5-5-5----------------------------------------------------------|

It’s gonna be alright
G|---------------------------------------------------------------------------------|
D|---------------------------------------------------------------------------------|
A|-3-3-3-3-------------------------------------------------------------------------|
E|---------1-1-1-1-----------------------------------------------------------------|

I’ve gotta see things for what they are
G|---------------------------------------------------------------------------------|
D|---------------------------------------------------------------------------------|
A|--5-5-5-5------------------------------------------------------------------------|
E|-------------5-5-5-5-------------------------------------------------------------|

At the time
G|------------------------------------------------------------------------------|
D|------------------------------------------------------------------------------|
A|--3---------------------------------------------------------------------------|
E|------------------------------------------------------------------------------|


I’ve gotta see things for what they are
G|---------------------------------------------------------------------------------|
D|---------------------------------------------------------------------------------|
A|--5-5-5-5------------------------------------------------------------------------|
E|-------------5-5-5-5-------------------------------------------------------------|

At the time
G|------------------------------------------------------------------------------|
D|------------------------------------------------------------------------------|
A|--3---------------------------------------------------------------------------|
E|------------------------------------------------------------------------------|