Gary Moore - Parisienne Walkways Text Guitar Tab

Learn the song with the online tablature player
"Parisienne Walkways" by Gary Moore

This tune means a lot to me, it was the first thing I learned to
play on guitar. What's notated here is more an interpretation than
a "note-for-note" transcription of a particular recording.
Besides, I've never heard Gary play it the same way twice...
Have fun!

               [Repeat]
-------------------15(17)---15-13-12----------------13(15)----13(15)--13-
-12/s--7/s---------------------------------------------------------------
------------8/s----------------------------------------------------------

-12--------h--p-----------15-13---10-12-12(13)---12-10-------------13-12-
----14---12-14-12--------------------------------------12--10-9----------
[First Time]                                            [Second Time]

----b----------------------------------------------     -----------------
-14(16)---14-13------------------------------------     --13-14----------
--------------------------------12/s---7/s---------     -----------------
---------------------------------------------8/s---     -----------------
-14-15-17--18(20)--18(20)---18-18---12-13-13(15)--18-18---15(17)--15(17)-
----12-13--15(17)--15(17)---15--15------------12-13(15)-13(15)-----------
-14-------------------------------------13-14----------------------------

[Play your favourite fast blues lick here....]

-12-12-13-12-10-12-10---10-----------------------------------------------
---------12-13-15--12-13-15-12-13-15----------------15(17)--15-13-15--15-

                     [Pause for effect!....]

-13-15-16--13-12----------------------15(17)-----(feedback ad infinitum)-
-15-13-12-----------------15-----13(15)---13-12--------------------15-13-
----------x------15----------------------------------12-/14/12/14--------

---10-12-13--12-------------h--p-----13-12---------------12--------------
-12-------------14-12---10-9-10-9-----------13-14---12-14--12------------
-----5-----------12------------------5-------13-15-15(17)15(17)(15)13-15-
-5-7--5-----12-14--12---s--s-----5-7--5-----14---------------------------
-------7--------------14/17/14---------7---14----------------------------

[Don't stop, just soak up the vibe, dude!......]

Subject: TAB: Parisienne Walkways
Date: Mon, 03 Nov 1997 21:57:22 GMT

There is already a partial tab to this song on OLGA, but this is my
own attempt at arranging the lead and rhythm parts together for one
guitar, based on a tab I posted to r.m.m.g.t earlier this year.
The key has been changed and there are one or two slight compromises
to allow easier fingering, but on the whole I think it works well as
an acoustic instrumental piece.

Regards, Malc

E|---------------------------|
B|---------------------------|
G|--------9\----4\----0------|
D|---------------------------|
A|---------------------------|
E|-------12\----7\----3------|

    Em                          Am7
E|--7---------5--------------|------------7-5------------|
B|--------0-----8---7---5----|---------------------------|
G|------0---0-------0---0-7--|--5-----5-----------5------|
D|---------------------------|------5---5-------5---5----|
A|----7-------7---7---7---7--|----7-------7---7-------7--|
E|--0-----------0------------|--5-----------5------------|

    Am7add4                     G
E|--5------------------------|------------5-3------------|
B|------------8-7---5--------|--0------------------------|
G|--------5-------------7-5--|--------0-----------0------|
D|------5---5-------5---5----|------0---0-------0---0----|
A|----5-------5---5---5---5--|----2-------2---2-------2--|
E|--5-----------5------------|--3-----------3------------|

    Cmaj7                       Am/F#
E|--3---------2-0------------|------------3-2------------|
B|--------0---------3---1-0--|---------------------------|
G|------0---0-------0---0----|--2-----2-----------2------|
D|----2-------2---2---2---2--|------2---2-------2---2----|
A|--3-----------3------------|----0-------0---0-------0--|
E|---------------------------|--2-----------2------------|

    B7/F#                       Em
E|--2------------------------|---------------------------|
B|------------5-4------------|---------------------------|
G|--------2---------5---4-2--|--0-----9\----4\----0------|
D|------4---4-------4---4----|---------------------------|
A|----2-------2---2---2---2--|---------------------------|
E|--2-----------2------------|--0----12\----7\----3------|

    Em                          Am7
E|--7---------5--------------|------------7-5------------|
B|--------0-----8---7---5----|---------------------------|
G|------0---0-------0---0-7--|--5-----5-----------5------|
D|---------------------------|------5---5-------5---5----|
A|----7-------7---7---7---7--|----7-------7---7-------7--|
E|--0-----------0------------|--5-----------5------------|

    Am7add4                     G
E|--5------------------------|------------5-3------------|
B|------------8-7---5--------|--0------------------------|
G|--------5-------------7-5--|--------0-----------0------|
D|------5---5-------5---5----|------0---0-------0---0----|
A|----5-------5---5---5---5--|----2-------2---2-------2--|
E|--5-----------5------------|--3-----------3------------|

    Cmaj7                       Am/F#       B/F#
E|--3---------2-0------------|------------3-2------------|
B|--------0---------3---1-0--|------------------------4--|
G|------0---0-------0---0----|--2-----2-----------4------|
D|----2-------2---2---2---2--|------2---2-------4---4----|
A|--3-----------3------------|----0-------0---2-------2--|
E|---------------------------|--2-----------2------------|

    E           F#m/E           E
E|--0------------------------|--0--|
B|------------------------2--|--0--|
G|--------1-----------2---2--|--1--|
D|------2---2-------4---4----|--2--|
A|----2-------2---4----------|--2--|
E|--0-----------0------------|--0--|

                                Am7
E|--------------7-----/10----|--10--------8-8------------|
B|--------9--10--------------|---------------------------|
G|---------------------------|--------5-----------5------|
D|---------------------------|------5---5-------5---5----|
A|---------------------------|----7-------7---7-------7--|
E|---------------------------|--5-----------5------------|

    Am7add4                     G/B         G
E|--------------5-----8------|--8---------7-7------------|
B|--------7---8--------------|--------0-----------0------|
G|--------5-----------5------|------0---0-------0---0----|
D|------5---5-------5---5----|----0-------0---0-------0--|
A|----5-------5---5-------5--|---------------------------|
E|--5-----------5------------|--7-----------3------------|

    Cmaj7                       Am7
E|--------0---2-3----/7------|--7---------5-5------------|
B|--------0-----------0------|---------------------------|
G|------0---0-------0---0----|--------5-----------5------|
D|----2-------2---2----------|------5---5-------5---5----|
A|--3-----------3---------7--|----7-------7---7-------7--|
E|---------------------------|--5-----------5------------|

    B7/F#                       Em
E|--------------2-----5------|--5---------3-3------------|
B|--------4---5--------------|--------0------------------|
G|--------2-----------2------|------0---0----------------|
D|------4---4-------4---4----|----2-------2-----2-----2--|
A|----2-------2---2-------2--|----------------3-----4----|
E|--2-----------2------------|--0-----------0-----0------|

    E                           Am7
E|------------------13--12---|--10--------8-8------------|
B|--------9-10-12-9---9---9--|--------5-----------5------|
G|---------------------------|------5---5-------5---5----|
D|--6-----6--7--9------------|----5-------5---5-------5--|
A|--7------------------------|--0-----------0------------|
E|--0------------------------|---------------------------|

    Am7add4                     G/B         G
E|--------------5-----8------|--8---------7-7------------|
B|--------7---8--------------|--------0-----------0------|
G|--------5-----------5------|------0---0-------0---0----|
D|------5---5-------5---5----|----0-------0---0-------0--|
A|----5-------5---5-------5--|---------------------------|
E|--5-----------5------------|--7-----------3------------|

    Cmaj7                       Am7
E|--------0---2-3----/7------|--7---------5-5------------|
B|--------0-----------0------|---------------------------|
G|------0---0-------0---0----|--------5-----------5------|
D|----2-------2---2----------|------5---5-------5---5----|
A|--3-----------3---------7--|----7-------7---7-------7--|
E|---------------------------|--5-----------5------------|

    F#/C#                       B           C
E|--7------------------------|---------------------------|
B|--------5---7-7-----5---5--|--7------------------------|
G|------6---6-------6---6----|--------8-----------9------|
D|----4-------4---4-------4--|------9---9-------10--10---|
A|--4-----------4------------|----9-------9---10------10-|
E|---------------------------|--7-----------8------------|

    B
E|--7-----7~~~~~~~~~~~~~~~~~~|
B|--7------------------------|
G|--8------------------------|
D|--9------------------------|
A|--9------------------------|
E|--7------------------------|

                                Am7
E|~~~~~~~~~~~~5--------------|------------7-5------------|
B|--------------8---7---5----|---------------------------|
G|------------------------7--|--5-----5-----------5------|
D|---------------------------|------5---5-------5---5----|
A|---------------------------|----7-------7---7-------7--|
E|---------------------------|--5-----------5------------|

    Am7add4                     G
E|--------5------------------|------------5-3------------|
B|------------8-7---5--------|--0------------------------|
G|--------5-------------7-5--|--------0-----------0------|
D|------5---5-------5---5----|------0---0-------0---0----|
A|----5-------5---5---5---5--|----2-------2---2-------2--|
E|--5-----------5------------|--3-----------3------------|

    Cmaj7                       Am/F#       B/F#
E|--3---------2-0------------|------------3-2------------|
B|--------0---------3---1-0--|------------------------4--|
G|------0---0-------0---0----|--2-----2-----------4------|
D|----2-------2---2---2---2--|------2---2-------4---4----|
A|--3-----------3------------|----0-------0---2-------2--|
E|---------------------------|--2-----------2------------|

    Em          Am7             Em          C     Bm
E|--0------------------------|---------------------------|
B|--------0-----------1------|--------0------------------|
G|----------0-------0---0----|----------0-------0--------|
D|------2-----2---2-------2--|------2-----2---2-------4--|
A|----2---------0------------|----2---------3-------5----|
E|--0------------------------|--0-----------------7------|

    Em          Am7             Em          C     Bm
E|--0------------------------|---------------------------|
B|--------0-----------1------|--------0------------------|
G|----------0-------0---0----|----------0-------0--------|
D|------2-----2---2-------2--|------2-----2---2-------4--|
A|----2---------0------------|----2---------3-------5----|
E|--0------------------------|--0-----------------7------|

    Em
E|-------0-------------------|
B|------0--------------------|
G|-----0---------------------|
D|----2----------------------|
A|---2-----------------------|
E|--0------------------------|