Gary Moore - The Loner Text Guitar Tab

Learn the song with the online tablature player
The Loner by Gary Moore

The Loner by Gary Moore (Wild Frontier disc)
Transcribed (w/errors by Lloyd Aquino)

This a great instrumental. I got lazy at the end and didnt transcribe a
couple of licks, sorry. Hopefully I didn't brutalize this too much.
Oh, I also left out the keyboard chords in the beginning and end(between
the fills). They sound like variations on G, not too tough to fig out.
Hope it works for you. Any corrections or adds would be appreciated.
NOTATION:

Don't strike any notes in () unless noted otherwise.
18>(19)<(18) represents a string bend up a half-step then back to orig.note
h=hammer on
w=quick pop with vib/bar
~=let ring
/=slide towards nut
\=slide towards bridge
------15--16>(18)-17>(18)17~--15>(16)15~--12-12-14>(16)~--14>(15)<(14)----

           *pick
---------13------12-----------12------------------------------------------

--14>(15)~-*<(14)~-9-9-11>(13)~-11-12h13~---15>(17)-14-12-----------------
-------------------------------------w--------------------12~-------------

end intro, main theme begins

---5-7-7>(8)-----7>(8)----3-5-5\(7)--------5-3-5-----5~--5-7-7>(8)<(7)-5--
-5----------5\(6)-------3----------3\(5)-1-------1-0----------------------

---------5>(7)<(5)-3h2------------5>(7)<(5)p3-h2-5------------------------
-5\(7)~--------------w--5-3---5~---------------w-5-3-5~--5>(off)----------
--------------------------------------------------------------------3~----
---8-10-10>(11)~------11~---6-8-8>(9)<(8)---------4-6-6>(7)<(6)-----------
-7---------------7h8------5--------------5\(7)~-3--------------3/(2)------

--3-5-5>(6)<(5)-3-3\(5)~--------------------------------------------------
-------------------------------8-10-10>(11)---------10~----6-8>(10)<(8)---
--------------------------6>(7)------------5>(6)<(5)~---h5----w-----------

----------------------------------3-3-5-5>(6)<(5)-3-9>(11)---8>(9)<8------
--------------------4-6->(7)-----------------------------------------11-10
-h5p(3)~--h3p(2)h(3)---w-----3p(2)~---------------------------------------
--w--------w------------------w-------------------------------------------

-----------------------------9-9>(10)<(9)-----------------10-11-13-10>(11)
-8----------------------8-11--------------11-10-8----8--------------------
---10---------------------------------------------10----------------------
------10>(11)<(10)p(8)-------------------------------w--------------------

<(10)---------------------------------------------------------------------
------13-11-13>(14)<(13)-11h13p11\(10)-8-10-10>(11)<(10)-8----------------
----------------------------10-11-13-10>(11)<(10)-------------------------
--------------------------------------------------13~-11-13-13>(14)<(13)--

-8---10>(11)-10>(11)<(10)~------------------------------------------------

------------------------------------13>(14)~-17p15p14-15-15>(16)-15>(16)--
-11h13p11\(10)------------------------------------------------------------
--------------12-14-14>(15)<(14)-12---------------------------------------

-15>(16)<(15)---------15-17-17>(18)------------17----13-15-17-------------
--------------14>(15)--------------13>(14)<(13)---13----------------------
--------------------------------------------------------------15>(16)<15~-

--------------------------------------------15-15-17-17>(18)-19>(20)-20>(21)
------------------16-18-18>(19)-------------------------------------------
-15h17p15\(14)-15---------------14>(15)<(14)~-----------------------------

-21>(22)~--20>(21)<(20)-18-17-------------20>(22)<(20)-18-17--------------
------------------------------20-18---20~--------------------20-18\(20)~--
{ this is a quick blues fill, not exact!!)-------------------------------}

---18p15-------15-18-15---------------------------------------------------
--------17>(18)---------17-15---15h17-17>(18)<(17)-15---------------------
------------------------------17---------------------17-15h(17)-17-15/(0)-

-20>(21)<20-18-17------------------------------------20>(21)<20-18-17-----
--------------------20-18--------------------------------------------18>(19)
--------------------------17>(19)<(17)-----0h3-----/(0)-------------------
---------------------------------------17~--w-wwwww-----------------------

-----|-------------|------------------------------------------------------
-----|--6----------|-------------------------------------------8-10-10>(11)
-----|5---5>(6)<(5)|-----------5>(6)<(5)-5>(6)----------------------------
-----|-------------|--5-7-7>(8)----------------8-5-5~---10>(11)-----------
-----|-------------|-5----------------------------------------------------
-----|-------------|------------------------------------------------------

-----------------------|--------------------------------------------------
--------------8>(9)<(8)|------10>(11)~------11>(12)~---11-11-11-----11----
-----------------------|-10-12---------10-12---------12--------12-10--12p10
-10>(11)<(10)~---------|--------------------------------------------------
-----------------------|--------------------------------------------------
-----------------------|--------------------------------------------------
                              (pick these notes)
--quick blues-|--------12>(13)~(13)(13)(13)(13)<(12)----------------------
----fill------|-----------------------------------------------------------
---in-G-------|-11>(12)~---------------------------12-10h(12)h(15)--------
-(sorry, im---|-----------------------------------------------w-----------
---lazy)------|-----------------------------------------------------------
--------------|-----------------------------------------------------------

-------------15-18-18>(19)~------------15-18-20>(21)----------------------
--------15-17--------------------15-17------------------------------------
--15-17---------------------15-17-----------------------------------------