Gary Numan - Are Friends Electric Text Guitar Tab

Learn song with the online tabulature player
I think all of the parts I have tabbed here are played on synthesizers.


the main riff

e------------------------------|
B------------------------------|
G-------------------------3----|
D-----5------3-----5--------2--|
A-3-3----1-1---3-3---1-1-------|
E------------------------------| x6

break

e----------------------------------------------|
B----------------------------------------------|
G----------------------------------------------|
D----------------------------------------------|
A------7--3-------8--3------10--3-------12--3--|
E-1-1--------1-1--------1-1---------1-1--------| x2

other bit

e----------------------------------------------|
B----------------------------------------------|
G--------------3-2---------------5-4-----------|
D-----3------3----------2------5---------------|
A---5---5--1----------3---3--3-----------------|
E-3-----------------1--------------------------| x6

e--------------------------------------------------|
B--------------------------------------------------|
G-------------------------5-4-5-4-5-4--------------|
D-----5-3-------3-2-----5--------------------------|
A---5---------3-------3----------------------------|
E-3---------1--------------------------------------| x4
don't play the 545454 the 4th time.

end
e---------------------------------------------------|
B---------------------------------------------------|
G---------------------------------------------------|
D---------------------------------------------------|
A----8-7-3------------------------------------------|
E----------3----------------------------------------|


the ordering (roughly) goes:

main riff
break
main riff
break
other bit
main riff
break
main riff
break
main riff
break
other bit
main riff till end (with end)

you should really listen to the song for the timing and the proper ordering. and btw, 
is my first tab, but feel free to send suggestions and the usual.

tabbed by Gilles Casey