Gary Wright - Dream Weaver Text Guitar Tab

Learn song with the online tabulature player
ARTIST: Gary Wright
SONG: Dream Weaver
TRANSCRIBED BY: Rich Kennedy (outpatient@ptd.net)


TUNING: Standard 440 (EADG)


****Keyboard arranged for Bass Guitar


INTRO

G[---------------------------------------------------------------------]
D[---------------------------------------------------------------------]
A[---------------------------------------------------------------------]
E[-9-----------------------------------9-------------------------------]


VERSE 1

  I've just closed my eyes again  Climbed aboard the dream weaver train

G[---------------------------------------------------------------------]
D[---------------------------------------------------------------------]
A[---------------------------------------------------------------------]
E[---------------------------------------------------------------------]

     Driver take away my worries of today     And leave tomorrow behind

G[---------------------------------------------------------------------]
D[---------------------------------------------------------------------]
A[------------------------------------------7--------------------------]
E[-0--------7------------5-------------------------7-------------------]


CHORUS 1

  Ooh  d r e a m weaver              I  believe you can get me...

G[---------------------------------------------------------------------]
D[--------------------------------2------------------------------------]
A[-------------------------0--2-4--------------------------------------]
E[-----0---0-4-4--4-5-5--------------0----0---4---4----4---5---5-------]

...night

G[---------------------------------------------------------------------]
D[-------------------------2--2h4h6------------------------------------]
A[---------------------------------------------------------------------]
E[-0---0--4--4---4--5--5-------------0----0---4---4----4---5---5-------]

  Ooh  d r e a m weaver              I believe we can reach...

G[---------------------------------------------------------------------]
D[----------------------------2---2------------------------------------]
A[------------------------0h2---4--------------------------------------]
E[-----0---0-4-4--4-5-5--------------0----0---4---4----4---5---5-------]

...light

G[---------------------------------------------------------------------]
D[---------------------------------------------------------------------]
A[---------------------------------------------------------------------]
E[-0---4--5--7---------------------------------------------------------]


VERSE 2

    Fly me high through the starry skies     Maybe to an astral plane

G[---------------------------------------------------------------------]
D[---------------------------------------------------------------------]
A[---------------------------------------------------------------------]
E[-9---------7--------------5---------------9-------7-----------5------]

    Cross the highways of fantasy       Help me to forget today's pain

G[---------------------------------------------------------------------]
D[---------------------------------------------------------------------]
A[-7-----------------------------------7-------------------------------]
E[-------------7------------5-------------------7-------------5--------]


CHORUS 2

  Ooh  d r e a m weaver              I  believe you can get me...

G[---------------------------------------------------------------------]
D[--------------------------------2------------------------------------]
A[-------------------------0--2-4--------------------------------------]
E[-----0---0-4-4--4-5-5--------------0----0---4---4----4---5---5-------]

...night

G[---------------------------------------------------------------------]
D[-------------------------2--2h4h6------------------------------------]
A[---------------------------------------------------------------------]
E[-0---0--4--4---4--5--5-------------0----0---4---4----4---5---5-------]

  Ooh  d r e a m weaver              I believe we can reach...

G[----------------------------0h2h4------------------------------------]
D[-------------------------2-------------------------------------------]
A[---------------------------------------------------------------------]
E[-----0---0-4-4--4-5-5--------------0----0---4---4----4---5---5-------]

...light

G[---------------------------------------------------------------------]
D[---------------------------------------------------------------------]
A[---------------------------------------------------------------------]
E[-0---4--4/5--7-------------------------------------------------------]


VERSE 3

   Though the dawn may be coming soon     There still may be some time

G[---------------------------------------------------------------------]
D[---------------------------------------------------------------------]
A[---------------------------------------------------------------------]
E[-9------------7-----------5----------9--------------7-------------5--]

    Fly me away to the bright side of the moon

G[---------------------------------------------------------------------]
D[---------------------------------------------------------------------]
A[-7-------------------------------------------------------------------]
E[------------7-----------5--------------------------------------------]

    And meet me on the other s  i  d  e

G[---------------------------------------------------------------------]
D[--------------------------------------5h7-7--------------------------]
A[-7-------------------------------------------------------------------]
E[------------7---------------5----------------------------------------]


CHORUS 3

  Ooh  d r e a m weaver              I  believe you can get me...

G[---------------------------------------------------------------------]
D[--------------------------------2------------------------------------]
A[-------------------------0--2-4--------------------------------------]
E[-----0---0-4-4--4-5-5--------------0----0---4---4----4---5---5-------]

...night

G[---------------------------------------------------------------------]
D[-------------------------2--2h4h6------------------------------------]
A[---------------------------------------------------------------------]
E[-0---0--4--4---4--5--5-------------0----0---4---4----4---5---5-------]

  Ooh  d r e a m weaver              I believe we can reach...

G[---------------------------------------------------------------------]
D[-------------------------2--4-2--------------------------------------]
A[--------------------------------4------------------------------------]
E[-----0---0-4-4--4-5-5--------------0----0---4---4----4---5---5-------]

...light

G[----------------------------0h2h4------------------------------------]
D[-------------------------2-------------------------------------------]
A[---------------------------------------------------------------------]
E[-0---0--4--4---4--5--5-------------0----0---4---4----4---5---5-------]


OUTRO

   D r e a m w e a v e r             
G[---------------------------------------------------------------------]
D[-------------------------2h4-2------------------------------2--2h4p2-]
A[-------------------------------4-------------------------------------]
E[-0---0--4--4---4--5--5-------------0---0--4--4---4--5--5-------------]

         
G[----------------------------0h2h4------------------------------------]
D[-------------------------2-------------------------------------------]
A[---------------------------------------------------------------------]
E[-0---0--4--4---4--5--5-------------0----0---4---4----4---5---5-------]

   D r e a m w e a v e r             
G[---------------------------------------------------------------------]
D[-2--------------------------5h7---5h7---5h7---5h7---5h7---5h7---5h7--]
A[---------------------------------------------------------------------]
E[---0----4----5--------5-5------5-----5-----5-----5-----5-----5-----9-]


| /  slide up
| \  slide down
| h  hammer-on
| p  pull-off
| ~  vibrato
| +  harmonic
| x  Mute note


Questions? Comments? Corrections? outpatient@ptd.net