Generationals - When They Fight They Fight Text Guitar Tab

Learn song with the online tabulature player
-------------------------------------------------------------------------------
                             When They Fight, They Fight - The Generationals
-------------------------------------------------------------------------------
Tabbed by: C.O.

Tuning: Standard

This is just my rough interpretation.

If you aren't comfortable with using the fifth fret on the A string, you can substitute 
for an open D.

e|-------------------------------------------------------------------------------|
B|-------------------------------------------------------------------------------|
G|-------------------------------------------------------------------------------|
D|-------------------------------------------------------------------------------|
A|--5--5--2--------2--5--5--2--0--0--2--5--5--2------2--5--5--2--0--0------------|
E|-----------3--3-------------------------------3--3-----------------------------|

e|------------------------------------------------------------------------------|
B|------------------------------------------------------------------------------|
G|------------------------------------------------------------------------------|
D|------------------------------------------------------------------------------|
A|--5--5--2-0-2--------0-2--5--5--2-0-2--0--0-0-2-4--5-5-2-0-2------0-2-5-5-----|
E|--------------3--3-3-----------------------------------------3-3-3------------|

e|---------------------------------------------------------------------------|
B|---------------------------------------------------------------------------|
G|---------------------------------------------------------------------------|
D|---------------------------------------------------------------------------|
A|---2-0-2-0-----------------------------------------------------------------|
E|---------------------------------------------------------------------------|

Bridge

e|---------------------------------------------------------------------------|
B|---------------------------------------------------------------------------|
G|---------------------------------------------------------------------------|
D|---------------------------------------------------------------------------|
A|----------------2---2---0---0---------0---0--------------------------------|
E|-3---3---2---2-----------------3---3---------------------------------------|