George Michael - Jesus To A Child Text Guitar Tab

Learn the song with the online tablature player
                             Jesus To A Child - George Michael

e|---------------------------------------------------------------------------|
B|-----------------------------7-9-------------------------------------------|
G|----------8/66/8----6-5--8/9------8/66/8---9--8----------------------------|
D|---------------------------------------------------------------------------|
A|---------------------------------------------------------------------------|
E|---------------------------------------------------------------------------|

e|------------------------------------------------------------------------------|
B|-----------------7--7---7--9--------------------------------------------------|
G|-------------6-4--------------------------------------------------------------|
D|---7-6-4-6-7------6---6-------------------------------------------------------|
A|------------------------------------------------------------------------------|
E|------------------------------------------------------------------------------|