Georgia Fair - Juanita Text Guitar Tab

Learn song with the online tabulature player
Intro:
e-------------------------------------------------------------------------|
B-----5------------------------------------8---8h10h8---8---8---8---6---5-|
G--5h7--7--5--4--0--h5--2--0h2h0--0h2h0--0------------7---------9---7---5-|
D-------------------------------------------------------------------------|
A-------------------------------------------------------------------------|
E-------------------------------------------------------------------------|

Verse:
C G F F

Chorus:
F C G C

After 1st chorus:
e----------------------------------------------------------------------------|
B-----5------------------------------------8s10s13--12--10s8-----8--8--6--5--|
G--5h7--7--5--4--0--h5--2--0h2h0--0h2h0--0-------------------7h9----9--7--5--|
D----------------------------------------------------------------------------|
A----------------------------------------------------------------------------|
E----------------------------------------------------------------------------|

Bridge:
Am C F Am