Germs - American Leather Text Guitar Tab

Learn the song with the online tablature player
x= Palm Mute

Chorus
E---------------------------------|
B---------------------------------|
G------------9--7-----------7-----|
D---9--9--9--9--7--7--7--7--7--7--|
A---9--9--9--7--5--7--7--7--5--7--|
E---7--7--7--------5--5--5-----5--|

Interlude
E------------------|
B------------------|
G---x--x--x--x--5--|
D---x--x--x--x--5--|
A---x--x--x--x--5--|
E------------------|

Riff
E---------------------------------|
B---------------------------------|
G------------------9--9--9--9--9--|
D---7--7--7--7--7--9--9--9--9--9--|
A---7--7--7--7--7--7--7--7--7--7--|
E---5--5--5--5--5-----------------|